Pink Floyd

Biding my time Tab

Pink Floyd

Difficulty: ExpertExpert

by Rowane

tuner correct add songbook print version text version save to e-mail
chordsukulelecavacokeyboardtabbassdrumsharmonicsflute Guitar Pro
close

there isn't a video lesson for this song

request
chords

Biding my time

Year: 1996 - Album: Relics

  		Biding my time: Pink Floyd 
 
 
My settings are as follows (for anyone that cares ;-): 
Amp: Peavey Blazer 158 
No Dist. Equaliser: L(10) M(6) H(7) 
Reverb(5) 
 
Guitar: 
Selector switch: Middle 
Vol(10) Middle Tone Dial(10) Bottom Tone Dial(7) 
 
e|--8--8----8--| 
B|--9----------| 
G|-10----10----| 
D|-------------| 
A|-------------| 
E|-------------| 
 
Option 1 
e|-----13-13--12-12--11-11--10--| 
B|--13--------------------------| 
G|------------------------------| 
D|------------------------------| 
A|------------------------------| 
E|------------------------------| 
 
Option 2 
e|-------13--13---12--12---11--11---10--| 
B|--13-----13-------12-------11---------| 
G|--------------------------------------| 
D|--------------------------------------| 
A|--------------------------------------| 
E|--------------------------------------| 
 
e|------------------------------------------| 
B|------------8--9-8------------------------| 
G|---------------8-7----7-8--7-8--7-8--7-8--| 
D|----------9*---9-8----6-7--6-7--6-7--6-7--| 
A|--8-9-10*-------------7-8--7-8--7-8--7-8--| 
E|------------------------------------------| 
            *let ring 
 
Just before the solo...                  A 
e|------------------------------------------| 
B|------------8--9-8------------------------| 
G|---------------8-7----8--<F 
e|--------5-5---8-10b12r10p8-------8-------12-13-12-10----10-| 
B|------5--------------------10-10-----10--------------13----| 
G|--5/6--------------------------------10--------------------| 
D|-------------------------------------10--------------------| 
A|-----------------------------------------------------------| 
E|-----------------------------------------------------------| 
 
e|-----------------------------------------------------10----| 
B|--10-----------------------------8-8--8-10p8-8-10b12-------| 
G|-----12b14r12p10-12-10----10-------------------------------| 
D|-----------------------12----------------------------------| 
A|-----------------------------------------------------------| 
E|-----------------------------------------------------------| 
 
e|--10-12b14r12p10-12----10--| 
B|--------------------12-----| 
G|---------------------------| 
D|---------------------------| 
A|---------------------------| 
E|---------------------------| 
 
Scaley thing: 
e|-------------------------------------------------------------| 
B|-------------------------------------------------------------| 
G|--------------8-10b11r10p8-------------------8-10b12r10p8----| 
D|---------8-10--------------10-----------8-10--------------10-| 
A|--8-9-10-------------------------8-9-10----------------------| 
E|-------------------------------------------------------------| 

	  

Full key step upFull key step up
Half key step upHalf key step up
Half key step downHalf key step down
Full key step downFull key step down
Search Paypal
auto scroll beats size up size down change color hide chords drawings
tab show chords e-chords YouTube Clip e-chords hide all tabs e-chords go to top tab

share with facebook