Piebald

You Wont Be Seeing Me Again

Piebald

tabs

by  VICTBORGES

save to print version add songbook text version e-mail correct tuner
chordsukulelecavacokeyboardtabbassdrumsharmonicaflute Guitar Pro
close

there isn't a video lesson for this song

chords

You Wont Be Seeing Me Again

	  		Intro: 

E|--------------------------------------------------| 
B|--------------------------------------------------| 
G|--------------------------------------------------| 
D|--4-----------4-----------4-----------4-----------| 
A|-----5-----------5-----------5-----------5--------| 
E|--------3-----------3--0--------0-----------0--0--| 

E|--------------------------------------------------| 
B|--------------------------------------------------| 
G|--------------------------------------------------| 
D|-----2-----4--2-----------4-----4--5--4--0--------| 
A|--2-----2--------0--2--3-----3--------------------| 
E|--------------------------------------------------| 

E|-----------------------------| 
B|-----------------------------| 
G|-----------------------------| 
D|--4-----4-----5-----4-----5--| 
A|--5-----5-----7-----3-----3--| 
E|--3-----0-----0--------------| 

E|--------------------------------------------3--| 
B|--3--5--1--3--0-----1-----0-----1-----1--3--0--| 
G|--0--0--0--0--2-----2-----2-----2-----0--0--0--| 
D|--4--4--2--2--2-----2-----2-----2-----2--4--0--| 
A|--5--5--3--3--0-----0-----0-----0-----3--5--2--| 
E|--------------------------------------------3--| 

E|-----------------------------------------| 
B|--0-----1-----3-----3-----5-----3-----5--| 
G|--0-----0-----0-----0-----0-----0-----0--| 
D|--2-----2-----2-----4-----4-----4-----4--| 
A|--3-----3-----3-----5-----5-----5-----5--| 
E|-----------------------------------------| 

E|-----------------------------------------------| 
B|--5-----3-----5--3--0-----5-----3-----5--3--0--| 
G|--0-----0-----0--0--0-----0-----0-----0--0--0--| 
D|--4-----4-----4--4--2-----4-----4-----4--4--2--| 
A|--5-----5-----5--5--3-----5-----5-----5--5--3--| 
E|-----------------------------------------------| 

End: 

E|---------------------------------------------------| 
B|--8-----8-----8-----8-----7-----8-----10-----7-----| 
G|-----0-----0-----0-----0-----0-----0------0-----0--| 
D|---------------------------------------------------| 
A|---------------------------------------------------| 
E|---------------------------------------------------| 

E|--------------------------------------------------| 
B|--1-----1-----3-----1-----0-----0-----0-----0-----| 
G|-----0-----0-----0-----0-----0-----0-----0-----0--| 
D|--------------------------------------------------| 
A|--------------------------------------------------| 
E|--------------------------------------------------| 

E|--------------------------------------------------------| 
B|--13-----13-----12-----12-----10-----10-----8-----8-----| 
G|------0------0------0------0------0------0-----0-----0--| 
D|--------------------------------------------------------| 
A|--------------------------------------------------------| 
E|--------------------------------------------------------| 

E|---------------------------------0--------| 
B|--7-----8-----10-----7-----3-----0-----3--| 
G|-----0-----0------0-----0--------0-----0--| 
D|---------------------------------2-----4--| 
A|---------------------------------2-----3--| 
E|---------------------------------0--------| 
		  

See also:

tabs Red Hot Chili Peppers - Dosed tabs Red Hot Chili Peppers - Otherside (intro) tabs Red Hot Chili Peppers - Around The World (ver. 2) tabs Alesana - Apology tabs Red Hot Chili Peppers - Scar Tissue tabs Red Hot Chili Peppers - Dani California (ver.2)
e-chords

Other versions:

tabs Piebald - You Wont Be Seeing Me Again
auto scroll beats size up size down change color hide chords drawings
tab show chords e-chords YouTube Clip e-chords hide all tabs e-chords go to top tab

share