Phineas And Ferb

Owcas Goin Down

Phineas And Ferb

tabs nolevel nolevel

by  CARLLUZ

save to print version add songbook text version e-mail correct tuner
chordsukulelecavacokeyboardtabbassdrumsharmonicaflute Guitar Pro
close

there isn't a video lesson for this song

chords

Owcas Goin Down

	  		

Intro: 
e|------------0--------------------------------------------------------------| 
B|---------0-------1-0-------------------------------------------------------| 
G|----0--2------2----------0-2-4-3-------------------------------------------| 
D|--2--------------------2---------------------------------------------------| 
A|---------------------------------------------------------------------------| 
E|---------------------------------------------------------------------------| 
verse 1: 
e|------------------------------------------0--5-1---------------------------| 
B|---------0---------------------------1--3--------1-4-3--4-3-4---4----------| 
G|----0--2----3-2---2-0--3-2-3---3---2--------------------------2------------| 
D|--2-------------2------------2---------------------------------------------| 
A|---------------------------------------------------------------------------| 
E|---------------------------------------------------------------------------| 

e|----------------------------------------------0----------------------------| 
B|----3-3-1-3--1-3-3-1-3-3--4-4-0-4-4-0-4-4-0-4----3-0-----------------------| 
G|--2----------------------------------------------------4-2-0---------------| 
D|-------------------------------------------------------------4-2-----------| 
A|---------------------------------------------------------------------------| 
E|---------------------------------------------------------------------------| 

Repeat Intro, then repeat verse 1 
************************************ 

| /   slide up 
| \   slide down 
| h   hammer-on 
| p   pull-off 
| ~   vibrato 
| +   harmonic 
| x   Mute note 
| b   Bend 
| pb  Pre-bend 
| br  Bend release 
| pbr Pre-bend release 
| brb Bend release bend 

************************************ 
		  

See also:

tabs Doa - Sexyest Girl tabs Deep Purple - Smoke on the water (intro) tabs Deep Purple - Highway Star tabs Albert Hammond Jr - Holiday tabs Deep Purple - Deep Purple - Smoke On The Water tabs Deep Purple - Ted The Mechanic
e-chords

Other versions:

tabs Phineas And Ferb - Owcas Goin Down
auto scroll beats size up size down change color hide chords drawings
tab show chords e-chords YouTube Clip e-chords hide all tabs e-chords go to top tab

share with facebook