Pharmacist

Heavendevil

Pharmacist

tabs

by  HEBEALMEIDA

save to print version add songbook text version e-mail correct tuner
chordsukulelecavacokeyboardtabbassdrumsharmonicaflute Guitar Pro
close

there isn't a video lesson for this song

chords

Heavendevil

	  		Intro 

Riff 
                            x2 
e|--------------------------| 
B|-3-----3-----5-----8------| 
G|----0-----3-----5-----8---| 
D|--------------------------| 
A|--------------------------| 
E|--------------------------| 
                                                                    x2 
e|------------------------------------------------------------------:||---------| 
B|-3-----3-----3---3-----3-----3---5-----5-----5---8-----8-----8----:||--8------| 
G|---0-0---0-0---0---3-3---3-3---3---5-5---5-5---5---8-8---8-8---8--:||--7------| 
D|------------------------------------------------------------------:||---------| 
A|------------------------------------------------------------------:||---------| 
E|------------------------------------------------------------------:||---------| 

Verse 

Pre-Chorus 
Chorus 
Riff 
e|------------------| 
B|-8-8-8-8-8-8------| 
G|------------------| 
D|------------------| 
A|------------------| 
E|------------------| 
PM < < < < < <  
                                                                    x2 
e|------------------------------------------------------------------:||---------| 
B|-3-----3-----3---3-----3-----3---5-----5-----5---8-----8-----8----:||--8------| 
G|---0-0---0-0---0---3-3---3-3---3---5-5---5-5---5---8-8---8-8---8--:||--7------| 
D|------------------------------------------------------------------:||---------| 
A|------------------------------------------------------------------:||---------| 
E|------------------------------------------------------------------:||---------| 

verse 2 

e|----15---| 
B|-15------| 
G|---------| 
D|---------| 
A|---------| 
E|---------| 


So bored...     x2 
e|---------------| 
B|-3--3--5--8----| 
G|-0--3--5--8----| 
D|---------------| 
A|---------------| 
E|---------------| 
   x8 x8 x8 x8 

Pre-Chorus 
Mean fist... 
e|----------| 
B|--5--8----| 
G|--5--8----| 
D|----------| 
A|----------| 
E|----------| 
    x8 x8 

Chorus 
Do as you say... x6 
e|---------------| 
B|-3--3--5--8----| 
G|-0--3--5--8----| 
D|---------------| 
A|---------------| 
E|---------------| 
   x8 x8 x8 x8 

Outro 

And I'm in heaven now...       x3 
e|----------------------| 
B|----------------------| 
G|-7--5-5-5-3--8--12----| 
D|----------------------| 
A|-5--3-3-3-1--6--10----| 
E|----------------------| 
   x8       x5 x8 x8 

e|--------------------------------------| 
B|--------------------------------------| 
G|-7--5-5-5-3--5-5-5-8-8-8-10-10-12-----| 
D|--------------------------------------| 
A|-5--3-3-3-1--3-3-3-6-6-6-8--8--10-----| 
E|--------------------------------------| 
   x8       x5                   x8 

e|-----------------------| 
B|-----------------------| 
G|-7--5-5-5-3--8--7-7-3--| 
D|-----------------------| 
A|-5--3-3-3-1--6--5-5-1--| 
E|-----------------------| 
   x8       x5 x6     x8 

e|------------------------------------------| 
B|------------------------------------------| 
G|-7--5-5-5-3--8--7-7-3-3-3-3-3-12-12-12----| 
D|------------------------------------------| 
A|-5--3-3-3-1--6--5-5-1-1-1-1-1-10-10-10----| 
E|------------------------------------------| 
   x8       x5 x6      

e|---------------------------------------------------------| 
B|---------------------------------------------------------| 
G|-12-7-7-7--10-10-10-10-7-7-7--7-7-5--5-5-5-5-7-7-8--8----| 
D|---------------------------------------------------------| 
A|-10-5-5-5--8--8--8--8--5-5-5--5-5-3--3-3-3-3-5-5-6--6----| 
E|---------------------------------------------------------| 
                                                      x7 
e|-----------------------| 
B|-----------------------| 
G|-7--5-5-5-3--5--8--12--| 
D|-----------------------| 
A|-5--3-3-3-1--3--6--10--| 
E|-----------------------| 
   x8       x5 x8 x8 



************************************ 

| x  Dead note 

************************************ 
		  

See also:

tabs Ira! - Poço de Sensibilidade (Solo - Acustico Mtv) tabs Deep Purple - Smoke On The Water tabs Deep Purple - Smoke on the water (intro) tabs Ira! - Eu Quero Sempre Mais (Com Pitty, intro) tabs Deep Purple - Smoke on the Water (ver. 2) tabs Deep Purple - Knocking At Your Back Door
e-chords

Other versions:

tabs Pharmacist - Heavendevil
auto scroll beats size up size down change color hide chords drawings
tab show chords e-chords YouTube Clip e-chords hide all tabs e-chords go to top tab

share