PG

Meu Universo

PG

tabs Beginner beginner

by  KMILEIXON

save to print version add songbook text version e-mail correct tuner
chordsukulelecavacokeyboardtabbassdrumsharmonicaflute Guitar Pro
close

there isn't a video lesson for this song

chords

Meu Universo

	  		Introdução  
               
E|-------------------------------------------------------------------- 
B|--------------------------0--------------------------------------0--  
G|------------0--2----2---------2------0------------0----2-----2------  
D|--------0--------------0-----------------------0----------0--------- 
A|--------------------------------------------3-----------------------  
E|---3----------------------------------------------------------------  
        
E|---------------------------------------------------------------------  
B|----------------------------0------------0--1--3-----1-----0\1------- 
G|------------0---2----2----------2--------------------------------2---  
D|--------0----------------0-------------------------------------------  
A|--------------------------------------------------------------------- 
E|---3-----------------------------------------------------------------  
       

Solo 3:28  
Tem alguns efeitos, mas basicamente é isso aí.  
      
|---------------7--------------------------8--------------------------  
|--8----8---10----10--8--7--8-----7--8--10---10--8--10---12--12----8--- 
|-----7---7------------------------------------------------------------  
|----------------------------------------------------------------------  
|----------------------------------------------------------------------  
|----------------------------------------------------------------------  

|-------------------7------------------------------------------------  
|-------7---8---10----10---8----8--7--8--10--------------------------  
|--7--9---------------------------------------9--7--9--7-------------  
|---------------------------------------------------------5--7--5----  
|--------------------------------------------------------------------  
|-------------------------------------------------------------------- 

|---------------7----------------------------------------------------| 
|-10--8------10---8----10--8--10-------------------10?12~---10-------|  
|--------9-7----------------------11--9--11--12------------------12--| 
|--------------------------------------------------------------------| 
|--------------------------------------------------------------------| 
|--------------------------------------------------------------------| 
       
[email protected] 


		  

See also:

tabs Oficina G3 - A Lição tabs Atmosfera de Adoração - Aleluia tabs Fernanda Brum - Espírto Santo tabs Aline Barros - sonda-me, usa-me tabs Lázaro - Eu Te Amo Tanto tabs Oficina G3 - A Lição (versão detalhada)
e-chords

Other versions:

tabs PG - Meu Universo tabs PG - Meu Universo - Solo De Guitarra tabs Roupa Nova - Meu Universo é Você (solo final)
auto scroll beats size up size down change color hide chords drawings
tab show chords e-chords YouTube Clip e-chords hide all tabs e-chords go to top tab

share