Petra

I love the Lord

Petra

tabs Expert expert

by  EDUARDO_LYVIO

save to print version add songbook text version e-mail correct tuner
chordsukulelecavacokeyboardtabbassdrumsharmonicaflute Guitar Pro
close

there isn't a video lesson for this song

chords

I love the Lord

Year: 1989 - Album: The Ultimate Collection

	  		INTRO: 
E|------------|------------------------|-------------------------| 
B|------------|------------------------|-------------------------| 
G|------------|--------------7-7-7/9---|-------------------------| 
D|------------|-2---2-2--2-2-7-7-7/9---|------------7--7--7---7--| 
A|-3h5-3p2----|-2---2-2--2-2-5-5-5/7---|-3h5-3p2----7--7--7---7--| 
E|--------5p0-|-0---0-0--0-0-----------|--------5p0-5--5--5---5--| 
ııııııııııııı |(Play this part 3 times)|ıııı (And this twice) 
Verse 1: 
ııııııııııııııııııııııııııııııııııııııııııııııııııııııııııııııııı  
D|----------------------------2---------------------| 
A|---------------------3p0---0----------------------| 
E|--------------------------3-----------------------| 
ıııı Well I don't careııııııııııı what some may say 
E|------------------------------------------------------------------------| 
B|---------------7--------------------------------------------------------| 
G|---------------7--(strum--------------------6--(strum-------------------| 
D|---------------7----8-----------------------6------4------------------2-| 
A|-3p0-5p0-3p0---5--times)--------------------7---times)--3p0-5p0-3p0---0-| 
E|---------------5----------------------------5----------------------3p0--| 
ııııııııııııııı Gonna stand up for the Lord today 
 
 
D|-------------------------2---------------------| 
A|--------------------3p0--0---------------------| 
E|-----------------------3-----------------------| 
ııı Well I don't careııııııı If they all know 
E|---------------------------------------------------------------------| 
B|---------------7-----------------------------------------------------| 
G|---------------7--(strum---------------(strum----9--7--6--4-4--------| 
D|---------------7-----8--------------9----4-------9--7--6--4-4--5~/7--| 
A|-3p0-5p0-3p0---5--times)------------9--times)----7--5--4--2-2--5~/7--| 
E|---------------5--------------------7-----------0--0--0--0-----3~/5--| 
ııııııııııııııı Gonna let the Lord's redeemed say so 
D|-------------------------2------------------| 
A|--------------------3p0--0------------------| 
E|-----------------------3--------------------| 
ıı Gonna say it loud-ıııııı Gonna say it proud 
 
 
Chorus: 
Part 1:ıı  
E|--------------------------------------------------------------| 
B|---------------7----------------------------------------------| 
G|---------------7---(strum------------6--(strum----------------| 
D|---------------7-----8---------------6------4-----------------| 
A|-3p0-5p0-3p0---5---times)------------7---times)---3p0-5p0-3p0-| 
E|---------------5---------------------5------------------------| 
ııııııı Hey!ıııı I,ıııı I Love The Lord  
Part 2: 
E|--------------------------------------------------| 
B|----7---------------------------------------------| 
G|----7---(strum-------------6--(strum--------------| 
D|----7------8---------------6-----4----------------| 
A|----5----times)------------7---times)---0-3-0---0-| 
E|----5----------------------5------------------3---| 
ııııı I,ııııııı I Love The Lordııııııııııııııı Hey! 
Part 3: 
E|------------------------------------------------| 
B|------------------------------------------------| 
G|------------------------------------------------| 
D|--------4--2--2--2--2---7--7--7-----------------| 
A|---5-5---5-2--2--2--2---7--7--7--0-3p0-5p0-3p0--| 
E|-----------0--0--0--0---5--5--5---------------3-| 
ıııı I,ııııı I Love The Lord  
Part 4: 
E|-------------------------------------------| 
B|-------------------------------------------| 
G|-------------------------------------------| 
D|--------4--2--2--2--2----7--------4-7-4----| 
A|---5-5---5-2--2--2--2----7--4h5h7------7-4-| 
E|-----------0--0--0--0----5-----------------| 
ıııı I,ııııı I Love The Lord  
Part 5: 
E|---------------------------------| 
B|---------------------------------| 
G|-------------7---------------9---| 
D|-------------7---------------9---| 
A|------6------5---------------7---| 
E|--7-7---7------------------------| 
ııııııııııııııııı I Love The Lord  
 
 
Interlude: 
D|--------------7---7---7---------------7---7---7---| 
A|--3h5-3p2-----7---7---7---3h5-3p2-----7---7---7---| 
E|---------5p0--5---5---5----------5p0--5---5---5---| 
ıııııııııııııııııııııı Hey! 
Verse 2: 
D|--7---------------------------2--------------------| 
A|--7----------------------3p0--0--------------------| 
E|--5-------------------------3----------------------| 
ııııı Come join the throng-ıııııı Ten million strongııı  
E|------------------------------------------------------------| 
B|-------------7----------------------------------------------| 
G|-------------7---(strum---------------------------6-(strum--| 
D|-------------7------8-----------------------------6---4-----| 
A|-3p0-5p0-3p0-5---times)---------------------------7-times)--| 
E|-------------5------------------------------------5---------| 
ıııııııııııı Come lift your voice and sing this victory song 
 
 
D|---------------2----------------------2-----------------| 
A|-3p0-5p0-3p0---0-----------------3p0--0-----------------| 
E|------------3p0---------------------3-------------------| 
ıııııııııııııııı Gonna say it loud-ııııı Gonna say it proud 
 
 
Chorus: part 1,2,3,4,5 
Note: I couldn't figure out the fast stuff in the first part, so I just 
left it as is 
 
 
Solo: 
E|------------------------------------------7h8p7--8-12-15^17-12~~-| 
B|--------8-8p5h5h5...etc(lots of times)--10-----10----------------| 
G|-5-7p5-7------------------------------7--------------------------| 
ıııı (Drop your whammy all the way down while doing the hammer-ons) 
 
 
Verse 3: -Same as first verse with the lyrics as: 
ııııııııııı Gotta choose today - whom you will serve 
ııııııııııı Don't try to wait to find the nerve  
ııııııııııı The lines are drawn - no middle ground 
ııııııııııı Don't you know you're either lost or found 
ııııııııııı Gonna say it loud - Gonna say it proud 
 
 
Chorus: Part 1,2,3,4,5 
Note: In part one drop the second chord down until the second part 
 
 
Chorus: Part 2,3,4,5 
-The end is just the reverse of the intro fading out 
 
 
 

		  

See also:

tabs Caedmon's Call - April Showers tabs The Raveonettes - Hark! The Herald Angels Sing tabs Vineyard - Vim Para Adorar-te tabs The Raveonettes - joy to the world tabs The Raveonettes - the first noel tabs Hillsong - Healer
e-chords

Other versions:

tabs Petra - I love the Lord
auto scroll beats size up size down change color hide chords drawings
tab show chords e-chords YouTube Clip e-chords hide all tabs e-chords go to top tab

share