Peter Hollens

The Misty Mountains Cold

Peter Hollens

tabs Beginner beginner

by  ROBEPOIEL

save to print version add songbook text version e-mail correct tuner
chordsukulelecavacokeyboardtabbassdrumsharmonicaflute Guitar Pro
close

there isn't a video lesson for this song

chords

The Misty Mountains Cold

	  		Far Over the Misty Mountains Cold, 

 
E|------------------------------------------| 
B|------------------------------------------| 
G|------------------------------------------| 
D|--------0-2-0-----------------------------| 
A|---0---3------3-2-0-----------------------| 
E|0-3---------------------------------------| 
 


   To Dungeons Deep and Caverns Old, 


 
E|------------------------------------------| 
B|------------------------------------------| 
G|------------------------------------------| 
D|-------------0----------------------------| 
A|-0-2-2-----3--3-2-0-----------------------| 
E|0-----------------------------------------| 
 


The Pines were Roaring on The Heights, 


 
E|------------------------------------------| 
B|------------------------------------------| 
G|------------------------------------------| 
D|-----------0------------------------------| 
A|-----0-0-3--3-2--0------------------------| 
E|0-0-3----------3--------------------------| 
 


 The Winds were Moaning in the Night, 


 
E|------------------------------------------| 
B|------------------------------------------| 
G|------------------------------------------| 
D|----------------0-------------------------| 
A|--0-2-2-2-----3--3-2-0-2------------------| 
E|0-----------------------------------------| 
 


   The Fire was Red,it Flaming Spread, 


 
E|------------------------------------------| 
B|------------------------------------------| 
G|------------------------------------------| 
D|--0--2-------0----------------------------| 
A|3--2-------3--0-2-------------------------| 
E|------------------------------------------| 
 


The Trees Like Torches Blazed with Light 


 
E|------------------------------------------| 
B|------------------------------------------| 
G|------------------------------------------| 
D|------------------------------------------| 
A|----0-2-3-3-2----0------------------------| 
E|0-3-----------3---------------------------| 
		  

See also:

tabs Deep Purple - Burn tabs Deep Purple - No No No tabs Deep Purple - Smoke on the water(ver. 2) tabs Deep Purple - Time To Kill tabs Deep Purple - Smoke on The Water (ver.3) tabs Deep Purple - Fireball
e-chords

Other versions:

tabs Peter Hollens - The Misty Mountains Cold
auto scroll beats size up size down change color hide chords drawings
tab show chords e-chords YouTube Clip e-chords hide all tabs e-chords go to top tab

share