Pet Symmetry

Please Dont Tell My Father

Pet Symmetry

tabs nolevel nolevel

by  ANDRSOUZA

save to print version add songbook text version e-mail correct tuner
chordsukulelecavacokeyboardtabbassdrumsharmonicaflute Guitar Pro
close

there isn't a video lesson for this song

chords

Please Dont Tell My Father

	  		 
 

Intro: "The first time I stole my father's keys..." 
e|--------------0------0-----------------------------------------------------| 
B|---1---1------1------1-----------------------------------------------------| 
G|---2---0------0------0-----------------------------------------------------| 
D|---3---3------2------0-----------------------------------------------------| 
A|--------------3------2-----------------------------------------------------| 
E|---1---1-------------3-----------------------------------------------------| 


Build=up: "You could not see their street signs..." (Horn Melody) 
e|----------------------------0------1-----------------0------1--------------| 
B|---0------0------1---1------1------0------1---1------1------0--------------| 
G|---0------0------2---0------0------0------2---0------0------0--------------| 
D|---3------5------3---3------2------0------3---3------2------0--------------| 
A|---3------5-----------------3------2-----------------3------2--------------| 
E|---1------3------1---1-------------3------1---1-------------3--------------| 


Verse: "Between the dumpster diving, vandalizing..."  
e|--------------0------0-----------------------------------------------------| 
B|---1---1------1------1-----------------------------------------------------| 
G|---2---0------0------0-----------------------------------------------------| 
D|---3---3------2------0-----------------------------------------------------| 
A|--------------3------2-----------------------------------------------------| 
E|---1---1-------------3-----------------------------------------------------| 


Chorus: "You could not see their street signs..." 
e|---------------------------------------------------------------------------| 
B|---0------0----------------------------------------------------------------| 
G|---0------0------7---5------7---5------------------------------------------| 
D|---3------5------5---5------5---5------------------------------------------| 
A|---3------5------3---3------3---3------------------------------------------| 
E|---1------3----------------------------------------------------------------| 


Bridge: "Considered violent and reckless..." 
        "Between the bong rips and knife hits..."  
e|---------------------------------------------------------------------------| 
B|---1---1---1---1-----------------------------------------------------------| 
G|---0---0---0---0-----------------------------------------------------------| 
D|---2---0---2---0-----------------------------------------------------------| 
A|---3---3---3---3-----------------------------------------------------------| 
E|---------------------------------------------------------------------------| 

"We occupied the space..."               "...Thing to lose" 
e|---0---0---0---0-----------------------------------------------------------| 
B|---1---1---1---1-----------------------1---1---1---1-----------------------| 
G|---0---0---0---0-----------------------2---0---2---0-----------------------| 
D|---0---0---0---0-----------------------3---3---3---3-----------------------| 
A|---2---0---2---0-----------------------------------------------------------| 
E|---3---3---3---3-----------------------1---1---1---1-----------------------| 



************************************ 

| /   slide up 
| \   slide down 
| h   hammer-on 
| p   pull-off 
| ~   vibrato 
| +   harmonic 
| x   Mute note 
| b   Bend 
| pb  Pre-bend 
| br  Bend release 
| pbr Pre-bend release 
| brb Bend release bend 

************************************ 
		  

See also:

tabs Deep Purple - Sometimes a Feel Like Screaming tabs Deep Purple - Mistreated tabs Deep Purple - Smoke on the Water (ver. 2) tabs Ira! - Vitrine Viva tabs Doa - Sexyest Girl tabs Deep Purple - Ted The Mechanic
e-chords

Other versions:

tabs Pet Symmetry - Please Dont Tell My Father
auto scroll beats size up size down change color hide chords drawings
tab show chords e-chords YouTube Clip e-chords hide all tabs e-chords go to top tab

share with facebook