Pet Symmetry

A Detailed And Poetic Physical Threat

Pet Symmetry

tabs nolevel nolevel

by  ROBEPOIEL

save to print version add songbook text version e-mail correct tuner
chordsukulelecavacokeyboardtabbassdrumsharmonicaflute Guitar Pro
close

there isn't a video lesson for this song

chords

A Detailed And Poetic Physical Threat

	  		 

Verse: 
e|--0--0--0--0--0--0--0--0--0--0--0--0--0--0--0--0---------------------------| 
B|--0--0--0--0--0--0--0--0--0--0--0--0--0--0--0--0---------------------------| 
G|--8--8--8--8--8--8--8--8--8--8--8--8--8--8--8--8---------------------------| 
D|--9--9--9--9--9--9--9--9--9--9--9--9--9--9--9--9---------------------------| 
A|--9--9--9--9--9--9--9--9--9--9--9--9--9--9--9--9---------------------------| 
E|--7--7--7--7--7--7--7--7--0--0--0--0--0--0--0--0---------------------------| 

Chorus: 

e|---------------------------------------------------------------------------| 
B|---------------------------------------------------------------------------| 
G|--8--8--8--8--8--8--8--8--11--11--11--11--11--11--11--11-------------------| 
D|--9--9--9--9--9--9--9--9--9---9---9---9---9---9---9---9--------------------| 
A|--9--9--9--9--9--9--9--9--x---x---x---x---x---x---x---x--------------------| 
E|--6--6--6--6--7--7--7--7--7---7---7---7---7---7---7---7--------------------| 
   whoa, whoa whoaaaa...   | have you ever felt your perfect teeth... 

interlude: 
just play this chord over and over (I know, it's a stretch). 
e|---------------------------------------------------------------------------| 
B|---------------------------------------------------------------------------| 
G|--11-----------------------------------------------------------------------| 
D|--9------------------------------------------------------------------------| 
A|--x------------------------------------------------------------------------| 
E|--7------------------------------------------------------------------------| 
		  

See also:

tabs Doa - Sexyest Girl tabs Deep Purple - Smoke on the water (intro) tabs Deep Purple - Highway Star tabs Albert Hammond Jr - Holiday tabs Deep Purple - Deep Purple - Smoke On The Water tabs Deep Purple - Ted The Mechanic
e-chords

Other versions:

tabs Pet Symmetry - A Detailed And Poetic Physical Threat
auto scroll beats size up size down change color hide chords drawings
tab show chords e-chords YouTube Clip e-chords hide all tabs e-chords go to top tab

share with facebook