Periphery

Pale Aura Mark

Periphery

tabs

by  ROBEPOIEL

save to print version add songbook text version e-mail correct tuner
chordsukulelecavacokeyboardtabbassdrumsharmonicaflute Guitar Pro
close

there isn't a video lesson for this song

chords

Pale Aura Mark

	  		
Guitar 1 


Piano 


      H.              H.               H.              H. 
D||--10------------|--L------------|---0------------|--L------------| 
A||--13------------|--L------------|--13------------|--L------------| 
F||--12------------|--L------------|--10------------|--L------------| 
C||--14------------|--L------------|---0------------|--L------------| 
G||----------------|---------------|----------------|---------------| 
C||----------------|---------------|----------------|---------------| 


   H.              H.               H.              Q     H 
---0------------|--L------------|---0------------|--L-----L--------| 
--10------------|--L------------|--13------------|--L----12--------| 
--11------------|--L------------|--10------------|--L-----L--------| 
--12------------|--L------------|---0------------|--L-----L--------| 
----------------|---------------|----------------|-----------------| 
----------------|---------------|----------------|-----------------| 


Distortion Guitar 


       PM      PM PM PM PM 
   E   S   E   T  T  T  T   E    S  S S  S  S S   S 
----------------------------------------------------| 
--(0)-----(0)--------------(0)----------------------| 
---5-------5----------------5-----------------9S-12-| 
---2---2---2---2--2--2--2---2---10-10-9-10-12-------| 
-------0-------0--0--0--0---------------------------| 
----------------------------------------------------| 


   E   S  E   E   S S  S   E    S   S  S  S 
--12-------------------3---3----3---3--L--3--| 
---x------------------(0)-(0)--(0)-(0)-L-(0)-| 
--12-------------------x---x----x---x--L--x--| 
------10-10--10--10-L--x---x----x---x--L--x--| 
------10-10--10--10-L--2---2----2---2--L--2--| 
------10-10--10--10-L--5---5----5---5--L--5--| 


     PM    PM PM PM   PM   PM 
  E  S  E  T  T  S  S S  S S  S S S S S     S E   S S S S E  S S S S   S E 
-------------------------3--------5-L-L-|------------------------0----12-L\--| 
--------------------1------1--5-8-L-5-8-|--------------------0-1---5/-12-L\--| 
-----------2--2--2----2-----------------|---------0-2-4-5----------5/--------| 
----------------------------------------|--10-L\-----------------------------| 
----------------------------------------|--10-L\-----------------------------| 
--3--3--3-------------------------------|--10-L\----------0------------------| 


       PM      PM PM PM PM 
   E   S   E   T  T  T  T   E    S  T  T S  S S  S  S 
------------------------------------------------------| 
--(0)-----(0)--------------(0)------------------------| 
---5-------5----------------5----------------------12-| 
---2---2---2---2--2--2--2---2---10-10-10-9-10-9-14----| 
-------0-------0--0--0--0-----------------------------| 
------------------------------------------------------| 


    SH 
    E   S  E   E   S S  S   E    S   S  S  S 
----0-------------------3---3----3---3--L--3--| 
--<>0------------------(0)-(0)--(0)-(0)-L-(0)-| 
------------------------x---x----x---x--L--x--| 
-------10-10--10--10-L--x---x----x---x--L--x--| 
-------10-10--10--10-L--2---2----2---2--L--2--| 
-------10-10--10--10-L--5---5----5---5--L--5--| 


     PM    PM PM PM    PM 
  E  S  E  T  T  S   S S  S S S S S E 
----------------------------7-8-7-0-----| 
--------------------------8-------------| 
--------------------12------------------| 
----------------------------------------| 
-----------7--7--8-----8------------8\--| 
--3--3--3-------------------------------| 


          PM PM PM PM PM        PM PM PM PM 
   S  E   T  T  S  S  S  S  E   S  E  E  S 
--------------------------------------------| 
--------------------------------------------| 
--12-12-------------------------------------| 
--10-10--10-10-10-10-10-16--L\--0--0--0--0--| 
--10-10--10-10-10-10-10-12--L\--0--0--0--0--| 
--10-10--10-10-10-10-10-12--L\--0--0--0--0--| 


  PM PM PM PM         PM PM PM PM 
  T  T  S  S  E  E  S S  S  S  S   S E   S 
-------------------------------------------| 
-------------------------------------------| 
-------------------------------------------| 
----------------------------------10-------| 
----------------------7--8--7--8-----------| 
--0--0--0--0--0--0--0----------------6\--0-| 


      PM    PM PM    PM PM   PM PM 
  E   S  E  S  S  E  S  S  S S  S  E 
---------------------------1-----------| 
------------------3--------3-----------| 
------------------2--------------------| 
---------------------------------------| 
-----------------------------------7b--| 
--0/--0--0--0--0-----0--0----0--0------| 


    PM PM PM PM       PM PM   PM PM       PM 
  S T  T  S  S  S E   S  S  S S  S  S E   S 
------------------------------------4--------| 
----------------------------5----------------| 
----------------6----------------------------| 
----------------------0--3----3--6-----------| 
--L---------------6\------------------4b-----| 
----0--0--0--0----------------------------0--| 


      PM     PM     PM       PM 
  E   S  E   S  E   S  S S S S  E  S 
-------------------------------------| 
-------------------------------------| 
-------------------------------------| 
--------------------------------6--6-| 
--4b-------------------8-4-0----x--x-| 
------0--1b--0--1b--0--------0--6--6-| 


  PM PM PM PM         PM PM PM PM 
  T  T  S  S  E  E  S S  S  S  S   S E   S 
-------------------------------------------| 
-------------------------------------------| 
-------------------------------------------| 
----------------------------------10-------| 
----------------------7--8--7--8-----------| 
--0--0--0--0--0--0--0----------------6\--0-| 


      PM    PM PM    PM PM   PM PM 
  E   S  E  S  S  E  S  S  S S  S  E 
---------------------------1-----------| 
------------------3--------3-----------| 
------------------2--------------------| 
---------------------------------------| 
-----------------------------------7b--| 
--0/--0--0--0--0-----0--0----0--0------| 


    PM PM PM PM       PM PM   PM PM       PM 
  S T  T  S  S  S E   S  S  S S  S  S E   S 
------------------------------------4--------| 
----------------------------5----------------| 
----------------6----------------------------| 
----------------------0--3----3--6-----------| 
--L---------------6\------------------4b-----| 
----0--0--0--0----------------------------0--| 


      PM     PM     PM       PM                 PM              PM 
  E   S  E   S  E   S  S S S S  E  S    S S S S S  E  S S S S S S  E  S 
-------------------------------------|----------------------------------| 
-------------------------------------|----------------------------------| 
-------------------------------------|----------------------------------| 
--------------------------------6--6-|--6----------6--6-6----------6--6-| 
--4b-------------------8-4-0----x--x-|--x-8-4-0----x--x-x-8-4-0----x--x-| 
------0--1b--0--1b--0--------0--6--6-|--6-------0--6--6-6-------0--6--6-| 


      PM     PM        PM PM PM PM    PM PM PM PM 
  E   S  E   S  E   E  T  T  T  T  E  T  T  T  T 
--------------------------------------------------| 
--------------------------------------------------| 
--------------------5-----------------------------| 
--------------------7--------------2--------------| 
--4b-------------------0--0--0--0--2--------------| 
------0--1b--0--1b-----------------2--2--2--2--2--| 


                    PM    PM                  PM    PM PM 
   S  S  S  S  S E  S  E  S  E  S S S    S E  S  E  S  S  T T S  S S S  S S  S 
--12-12-12-12-12----------------0-0-0-|--0-------------------------------------| 
--13-13-13-13-13----------------1-1-1-|--1-------------------------------------| 
--14-14-14-14-14----------------2-2-2-|--2-------------------------------------| 
--------------------------------2-2-2-|--2---------------------------0-10-0-14-| 
--------------------------------------|-------------------------10-0-----------| 
-----------------3--3--3--3--3--------|----3--3--3--3--3--7-8-7----------------| 


                    PM    PM 
   S  S  S  S  S E  S  E  S  E   S  S  S 
-----------------------------------------| 
--13-13-13-13-13----------------13-13-13-| 
--12-12-12-12-12----------------10-10-10-| 
--14-14-14-14-14----------------12-12-12-| 
-----------------------------------------| 
-----------------0--0--0--0--0-----------| 


        PM    PM PM                                         PM    PM 
   S E  S  E  S  S  T T S S S T T S E      S  S  S  S  S E  S  E  S  E  S S S 
---------------------------------------|--12-12-12-12-12----------------0-0-0-| 
--13-----------------------------------|--13-13-13-13-13----------------1-1-1-| 
--10-----------------------------------|--14-14-14-14-14----------------2-2-2-| 
--12----------------2-3-2-0-2----------|--------------------------------2-2-2-| 
------------------------------3-2-0-3--|--------------------------------------| 
-----0--0--0--0--0------------------3--|-----------------3--3--3--3--3--------| 


       PM    PM PM 
  S E  S  E  S  S  T T S  S S S  S S  S 
--0-------------------------------------| 
--1-------------------------------------| 
--2-------------------------------------| 
--2---------------------------0-10-0-14-| 
-------------------------10-0-----------| 
----3--3--3--3--3--7-8-7----------------| 


                    PM    PM 
   S  S  S  S  S E  S  E  S  E   S  S  S 
-----------------------------------------| 
--13-13-13-13-13----------------13-13-13-| 
--12-12-12-12-12----------------10-10-10-| 
--14-14-14-14-14----------------12-12-12-| 
-----------------------------------------| 
-----------------0--0--0--0--0-----------| 


        PM    PM PM 
   S E  S  E  S  S  T T S S S T T S E 
---------------------------------------| 
--13-----------------------------------| 
--10-----------------------------------| 
--12----------------2-3-2-0-2----------| 
------------------------------3-2-0-3--| 
-----0--0--0--0--0------------------3--| 


       PM      PM PM PM PM 
   E   S   E   T  T  T  T   E    S  S S  S  S S   S 
----------------------------------------------------| 
--(0)-----(0)--------------(0)----------------------| 
---5-------5----------------5-----------------9S-12-| 
---2---2---2---2--2--2--2---2---10-10-9-10-12-------| 
-------0-------0--0--0--0---------------------------| 
----------------------------------------------------| 


   E   S  E   E   S S  S   E    S   S  S  S 
--12-------------------3---3----3---3--L--3--| 
---x------------------(0)-(0)--(0)-(0)-L-(0)-| 
--12-------------------x---x----x---x--L--x--| 
------10-10--10--10-L--x---x----x---x--L--x--| 
------10-10--10--10-L--2---2----2---2--L--2--| 
------10-10--10--10-L--5---5----5---5--L--5--| 


     PM    PM PM PM   PM   PM 
  E  S  E  T  T  S  S S  S S  S S S S S     S E   S S S S E  S S S S   S E 
-------------------------3--------5-L-L-|------------------------0----12-L\--| 
--------------------1------1--5-8-L-5-8-|--------------------0-1---5/-12-L\--| 
-----------2--2--2----2-----------------|---------0-2-4-5----------5/--------| 
----------------------------------------|--10-L\-----------------------------| 
----------------------------------------|--10-L\-----------------------------| 
--3--3--3-------------------------------|--10-L\----------0------------------| 


       PM      PM PM PM PM 
   E   S   E   T  T  T  T   E    S  T  T S  S S  S  S 
------------------------------------------------------| 
--(0)-----(0)--------------(0)------------------------| 
---5-------5----------------5----------------------12-| 
---2---2---2---2--2--2--2---2---10-10-10-9-10-9-14----| 
-------0-------0--0--0--0-----------------------------| 
------------------------------------------------------| 


    SH 
    E   S  E   E   S S  S   E    S   S  S  S 
----0-------------------3---3----3---3--L--3--| 
--<>0------------------(0)-(0)--(0)-(0)-L-(0)-| 
------------------------x---x----x---x--L--x--| 
-------10-10--10--10-L--x---x----x---x--L--x--| 
-------10-10--10--10-L--2---2----2---2--L--2--| 
-------10-10--10--10-L--5---5----5---5--L--5--| 


     PM    PM PM PM    PM 
  E  S  E  T  T  S   S S  S S S S S E 
----------------------------7-8-7-0-----| 
--------------------------8-------------| 
--------------------12------------------| 
----------------------------------------| 
-----------7--7--8-----8------------8\--| 
--3--3--3-------------------------------| 


          PM PM PM PM PM        PM PM PM PM 
   S  E   T  T  S  S  S  S  E   S  E  E  S 
--------------------------------------------| 
--------------------------------------------| 
--12-12-------------------------------------| 
--10-10--10-10-10-10-10-16--L\--0--0--0--0--| 
--10-10--10-10-10-10-10-12--L\--0--0--0--0--| 
--10-10--10-10-10-10-10-12--L\--0--0--0--0--| 


  PM PM PM PM         PM PM PM PM 
  T  T  S  S  E  E  S S  S  S  S   S E   S 
-------------------------------------------| 
-------------------------------------------| 
-------------------------------------------| 
----------------------------------10-------| 
----------------------7--8--7--8-----------| 
--0--0--0--0--0--0--0----------------6\--0-| 


      PM    PM PM    PM PM   PM PM 
  E   S  E  S  S  E  S  S  S S  S  E 
---------------------------1-----------| 
------------------3--------3-----------| 
------------------2--------------------| 
---------------------------------------| 
-----------------------------------7b--| 
--0/--0--0--0--0-----0--0----0--0------| 


    PM PM PM PM       PM PM   PM PM       PM 
  S T  T  S  S  S E   S  S  S S  S  S E   S 
------------------------------------4--------| 
----------------------------5----------------| 
----------------6----------------------------| 
----------------------0--3----3--6-----------| 
--L---------------6\------------------4b-----| 
----0--0--0--0----------------------------0--| 


      PM     PM     PM       PM 
  E   S  E   S  E   S  S S S S  E  S 
-------------------------------------| 
-------------------------------------| 
-------------------------------------| 
--------------------------------6--6-| 
--4b-------------------8-4-0----x--x-| 
------0--1b--0--1b--0--------0--6--6-| 


  PM PM PM PM         PM PM PM PM 
  T  T  S  S  E  E  S S  S  S  S   S E   S 
-------------------------------------------| 
-------------------------------------------| 
-------------------------------------------| 
----------------------------------10-------| 
----------------------7--8--7--8-----------| 
--0--0--0--0--0--0--0----------------6\--0-| 


      PM    PM PM    PM PM   PM PM 
  E   S  E  S  S  E  S  S  S S  S  E 
---------------------------1-----------| 
------------------3--------3-----------| 
------------------2--------------------| 
---------------------------------------| 
-----------------------------------7b--| 
--0/--0--0--0--0-----0--0----0--0------| 


    PM PM PM PM       PM PM   PM PM       PM 
  S T  T  S  S  S E   S  S  S S  S  S E   S 
------------------------------------4--------| 
----------------------------5----------------| 
----------------6----------------------------| 
----------------------0--3----3--6-----------| 
--L---------------6\------------------4b-----| 
----0--0--0--0----------------------------0--| 


      PM     PM        PM PM PM PM    PM PM PM PM 
  E   S  E   S  E   E  T  T  T  T  E  T  T  T  T 
--------------------------------------------------| 
--------------------------------------------------| 
--------------------5-----------------------------| 
--------------------7--------------2--------------| 
--4b-------------------0--0--0--0--2--------------| 
------0--1b--0--1b-----------------2--2--2--2--2--| 


                    PM    PM                  PM    PM PM 
   S  S  S  S  S E  S  E  S  E  S S S    S E  S  E  S  S  T T S  S S S  S S  S 
--12-12-12-12-12----------------0-0-0-|--0-------------------------------------| 
--13-13-13-13-13----------------1-1-1-|--1-------------------------------------| 
--14-14-14-14-14----------------2-2-2-|--2-------------------------------------| 
--------------------------------2-2-2-|--2---------------------------0-10-0-14-| 
--------------------------------------|-------------------------10-0-----------| 
-----------------3--3--3--3--3--------|----3--3--3--3--3--7-8-7----------------| 


                    PM    PM 
   S  S  S  S  S E  S  E  S  E   S  S  S 
-----------------------------------------| 
--13-13-13-13-13----------------13-13-13-| 
--12-12-12-12-12----------------10-10-10-| 
--14-14-14-14-14----------------12-12-12-| 
-----------------------------------------| 
-----------------0--0--0--0--0-----------| 


        PM    PM PM                                         PM    PM 
   S E  S  E  S  S  T T S S S T T S E      S  S  S  S  S E  S  E  S  E  S S S 
---------------------------------------|--12-12-12-12-12----------------0-0-0-| 
--13-----------------------------------|--13-13-13-13-13----------------1-1-1-| 
--10-----------------------------------|--14-14-14-14-14----------------2-2-2-| 
--12----------------2-3-2-0-2----------|--------------------------------2-2-2-| 
------------------------------3-2-0-3--|--------------------------------------| 
-----0--0--0--0--0------------------3--|-----------------3--3--3--3--3--------| 


       PM    PM PM 
  S E  S  E  S  S  T T S  S S S  S S  S 
--0-------------------------------------| 
--1-------------------------------------| 
--2-------------------------------------| 
--2---------------------------0-10-0-14-| 
-------------------------10-0-----------| 
----3--3--3--3--3--7-8-7----------------| 


                    PM    PM 
   S  S  S  S  S E  S  E  S  E   S  S  S 
-----------------------------------------| 
--13-13-13-13-13----------------13-13-13-| 
--12-12-12-12-12----------------10-10-10-| 
--14-14-14-14-14----------------12-12-12-| 
-----------------------------------------| 
-----------------0--0--0--0--0-----------| 


        PM    PM PM 
   S E  S  E  S  S  T T S S S T T S E 
---------------------------------------| 
--13-----------------------------------| 
--10-----------------------------------| 
--12----------------2-3-2-0-2----------| 
------------------------------3-2-0-3--| 
-----0--0--0--0--0------------------3--| 


       PM      PM PM PM PM 
   E   S   E   T  T  T  T   E    S  S S  S  S S   S 
----------------------------------------------------| 
--(0)-----(0)--------------(0)----------------------| 
---5-------5----------------5-----------------9S-12-| 
---2---2---2---2--2--2--2---2---10-10-9-10-12-------| 
-------0-------0--0--0--0---------------------------| 
----------------------------------------------------| 


   E   S  E   E   S S  S   E    S   S  S  S 
--12-------------------3---3----3---3--L--3--| 
---x------------------(0)-(0)--(0)-(0)-L-(0)-| 
--12-------------------x---x----x---x--L--x--| 
------10-10--10--10-L--x---x----x---x--L--x--| 
------10-10--10--10-L--2---2----2---2--L--2--| 
------10-10--10--10-L--5---5----5---5--L--5--| 


     PM    PM PM PM   PM   PM 
  E  S  E  T  T  S  S S  S S  S S S S S     S E   S S S S E  S S S S   S E 
-------------------------3--------5-L-L-|------------------------0----12-L\--| 
--------------------1------1--5-8-L-5-8-|--------------------0-1---5/-12-L\--| 
-----------2--2--2----2-----------------|---------0-2-4-5----------5/--------| 
----------------------------------------|--10-L\-----------------------------| 
----------------------------------------|--10-L\-----------------------------| 
--3--3--3-------------------------------|--10-L\----------0------------------| 


       PM      PM PM PM PM 
   E   S   E   T  T  T  T   E    S  T  T S  S S  S  S 
------------------------------------------------------| 
--(0)-----(0)--------------(0)------------------------| 
---5-------5----------------5----------------------12-| 
---2---2---2---2--2--2--2---2---10-10-10-9-10-9-14----| 
-------0-------0--0--0--0-----------------------------| 
------------------------------------------------------| 


    SH 
    E   S  E   E   S S  S   E    S   S  S  S 
----0-------------------3---3----3---3--L--3--| 
--<>0------------------(0)-(0)--(0)-(0)-L-(0)-| 
------------------------x---x----x---x--L--x--| 
-------10-10--10--10-L--x---x----x---x--L--x--| 
-------10-10--10--10-L--2---2----2---2--L--2--| 
-------10-10--10--10-L--5---5----5---5--L--5--| 


     PM    PM PM PM    PM 
  E  S  E  T  T  S   S S  S S S S S E 
----------------------------7-8-7-0-----| 
--------------------------8-------------| 
--------------------12------------------| 
----------------------------------------| 
-----------7--7--8-----8------------8\--| 
--3--3--3-------------------------------| 


          PM PM PM PM PM        PM PM PM PM 
   S  E   T  T  S  S  S  S  E   S  E  E  S 
--------------------------------------------| 
--------------------------------------------| 
--12-12-------------------------------------| 
--10-10--10-10-10-10-10-16--L\--0--0--0--0--| 
--10-10--10-10-10-10-10-12--L\--0--0--0--0--| 
--10-10--10-10-10-10-10-12--L\--0--0--0--0--| 


   T  T  T  T  T  T  T  T  T  T  T  T  T  T  T  T  T  T  T  T  T  T  T  T 
--------------------------------------------------------------------------| 
--10-10-10-10-10-10-10-10-10-10-10-10-10-10-10-10-10-10-10-10-10-10-10-10-| 
--------------------------------------------------------------------------| 
--------------------------------------------------------------------------| 
--------------------------------------------------------------------------| 
--------------------------------------------------------------------------| 


   T  T  T  T  T  T  T  T  T  T  T  T T T T T T T T T T T T T 
--------------------------------------------------------------| 
--13-13-13-13-13-13-13-13-13-13-13-13-8-8-8-8-8-8-8-8-8-8-8-8-| 
--------------------------------------------------------------| 
--------------------------------------------------------------| 
--------------------------------------------------------------| 
--------------------------------------------------------------| 


   T  T  T  T  T  T  T  T  T  T  T  T  T  T  T  T  T  T  T  T  T  T  T  T 
--------------------------------------------------------------------------| 
--10-10-10-10-10-10-10-10-10-10-10-10-10-10-10-10-10-10-10-10-10-10-10-10-| 
--------------------------------------------------------------------------| 
--------------------------------------------------------------------------| 
--------------------------------------------------------------------------| 
--------------------------------------------------------------------------| 


   T  T  T  T  T  T  T  T  T  T  T  T  T  T  T  T  T  T  T  T  T  T  T  T 
--------------------------------------------------------------------------| 
--10-10-10-10-10-10-10-10-10-10-10-10-13-13-13-13-13-13-13-13-13-13-13-13-| 
--------------------------------------------------------------------------| 
--------------------------------------------------------------------------| 
--------------------------------------------------------------------------| 
--------------------------------------------------------------------------| 


   T  T  T  T  T  T  T  T  T  T  T  T  T  T  T  T  T  T  T  T  T  T  T  T 
--------------------------------------------------------------------------| 
--15-15-15-15-15-15-15-15-15-15-15-15-15-15-15-15-15-15-15-15-15-15-15-15-| 
--------------------------------------------------------------------------| 
--------------------------------------------------------------------------| 
--------------------------------------------------------------------------| 
--------------------------------------------------------------------------| 


   T  T  T  T  T  T  T  T  T  T  T  T  T   T   T   T   T   T   T   T   T   T   T 
---------------------------------------------------------------------------------| 
--15-15-15-15-15-15-15-15-15-15-15-15-15b-15b-15b-15b-15b-15b-15b-15b-15b-15b-15-| 
---------------------------------------------------------------------------------| 
---------------------------------------------------------------------------------| 
---------------------------------------------------------------------------------| 
---------------------------------------------------------------------------------| 


   T   T   T   T   T   T   T   T   T   T   T   T   T   T   T   T   T   T   T   T 
---------------------------------------------------------------------------------| 
--15b-15b-15b-15b-15b-15b-15b-15b-15b-15b-15b-15b-15b-15b-15b-15b-15b-15b-15b-15-| 
---------------------------------------------------------------------------------| 
---------------------------------------------------------------------------------| 
---------------------------------------------------------------------------------| 
---------------------------------------------------------------------------------| 


   T   T   T   T   T   T   T   T   T   T   T   T   T   T   T   T   T   T   T   T 
---------------------------------------------------------------------------------| 
--15b-15b-15b-15b-15b-15b-15b-15b-15b-15b-15b-15b-15b-15b-15b-15b-15b-15b-15b-15-| 
---------------------------------------------------------------------------------| 
---------------------------------------------------------------------------------| 
---------------------------------------------------------------------------------| 
---------------------------------------------------------------------------------| 


      PM PM 
  S S S  S  S S Q.        E    S  S  S  S  S  S  S  S  S  S 
------------5----------|------------------------------19-17-| 
--------------8--------|------------------------20----------| 
----------------7------|--L/--21-22----19-21-22----22-------| 
------5--7-------------|------------19----------------------| 
-----------------------|------------------------------------| 
-----------------------|------------------------------------| 


   Q.       Q. 
--------------------| 
--------------------| 
--17~------16~------| 
--------------------| 
--------------------| 
--------------------| 


                           T 
         |--3--|  |--3--| 
  Q      T  T  T  T  T  T  T  T  T  T  T  T  T  T  T  T  T  T 
--------------------------------------------------------------| 
-----------------15-17-18-20-18-17-15-18-17-15----------------| 
--9~----14-16-17-------------------------------17-16-14-------| 
--------------------------------------------------------17-16-| 
--------------------------------------------------------------| 
--------------------------------------------------------------| 


                           PM PM 
   Q.       Q.         E   S  S  S  S  S  S  S  S  S  S 
--------------------|-----------------------20-16-17-15-| 
--------------------|-----------------17-18-------------| 
--------------------|-----------19-17-------------------| 
--16~------12~------|--L--------------------------------| 
--------------------|-----15-17-------------------------| 
--------------------|-----------------------------------| 


                                           PM    PM 
   S   S E.   S  S   Q    S      S  S   S  S  S  S  S  S  S  S  S  S 
-----------------------------|---------------------------------------| 
--15b-15-L---13--------------|---------------------13-14-15-12-------| 
-----------------------------|-----10S-14----14----------------14-12-| 
--------------------------9S-|--12-10S-14-12----10-------------------| 
----------------15b-15-------|---------------------------------------| 
-----------------------------|---------------------------------------| 


  H.              H. 
---------------|---------------|---------------|---------------|---------------| 
---------------|---------------|---------------|---------------|---------------| 
---------------|---------------|---------------|---------------|---------------| 
--7------------|--L------------|---------------|---------------|---------------| 
---------------|---------------|---------------|---------------|---------------| 
---------------|---------------|---------------|---------------|---------------| 


(03:19) 


           PM PM    PM PM PM             PM PM PM PM PM PM PM PM PM PM PM PM 
  H        E  E     E  E  E  E  E  E     S  S  S  S  S  S  S  S  S  S  S  S 
-----------------|--------------------|--------------------------------------| 
-----------------|--------------------|--------------------------------------| 
-----------------|--------------------|--------------------------------------| 
-----------0--0--|--0--0--0--3--3--3--|--------------------------------------| 
-----------0--0--|--0--0--0--3--3--3--|--------------------------------------| 
-----------0--0--|--0--0--0--3--3--3--|--7--7--7--7--7--7--7--7--7--7--7--7--| 


  PM PM PM PM PM PM PM PM PM PM PM PM    PM PM PM PM PM PM PM PM PM PM PM PM 
  S  S  S  S  S  S  S  S  S  S  S  S     S  S  S  S  S  S  S  S  S  S  S  S 
--------------------------------------|--------------------------------------| 
--------------------------------------|--------------------------------------| 
--------------------------------------|--------------------------------------| 
--------------------------------------|--------------------------------------| 
--------------------------------------|--------------------------------------| 
--7--7--7--7--7--7--7--7--7--7--7--7--|--3--3--3--3--3--3--3--3--3--3--3--3--| 


  PM PM PM PM PM PM PM PM PM PM PM PM    PM PM PM PM PM PM PM PM PM PM PM PM 
  S  S  S  S  S  S  S  S  S  S  S  S     S  S  S  S  S  S  S  S  S  S  S  S 
--------------------------------------|--------------------------------------| 
--------------------------------------|--------------------------------------| 
--------------------------------------|--------------------------------------| 
--------------------------------------|--------------------------------------| 
--------------------------------------|--------------------------------------| 
--3--3--3--3--3--3--5--5--5--5--5--5--|--0--0--0--0--0--0--0--0--0--0--0--0--| 


  PM PM PM PM PM PM  PM PM PM PM PM PM   PM PM PM PM PM PM PM PM PM PM PM PM 
  S  S  S  S  S  S   S  S  S  S  S  S    S  S  S  S  S  S  S  S  S  S  S  S 
--------------------------------------|--------------------------------------| 
--------------------------------------|--------------------------------------| 
--------------------------------------|--------------------------------------| 
--------------------------------------|--------------------------------------| 
--------------------------------------|--------------------------------------| 
--0--0--0--0--0--0--10-10-10-10-10-10-|--0--0--0--0--0--0--0--0--0--0--0--0--| 


  PM PM PM PM PM PM PM PM PM PM PM PM 
  S  S  S  S  S  S  S  S  S  S  S  S 
--------------------------------------| 
--------------------------------------| 
--------------------------------------| 
--------------------------------------| 
--------------------------------------| 
--0--0--0--0--0--0--3--3--3--3--3--3--| 


  PM PM PM PM PM PM PM PM PM PM PM PM PM PM PM PM PM PM PM PM PM PM PM PM 
  T  T  T  T  T  T  T  T  T  T  T  T  T  T  T  T  T  T  T  T  T  T  T  T 
--------------------------------------------------------------------------| 
--------------------------------------------------------------------------| 
--------------------------------------------------------------------------| 
--------------------------------------------------------------------------| 
--------------------------------------------------------------------------| 
--7--7--7--7--7--7--7--7--7--7--7--7--7--7--7--7--7--7--7--7--7--7--7--7--| 


  PM PM PM PM PM PM PM PM PM PM PM PM PM PM PM PM PM PM PM PM PM PM PM PM 
  T  T  T  T  T  T  T  T  T  T  T  T  T  T  T  T  T  T  T  T  T  T  T  T 
--------------------------------------------------------------------------| 
--------------------------------------------------------------------------| 
--------------------------------------------------------------------------| 
--------------------------------------------------------------------------| 
--------------------------------------------------------------------------| 
--7--7--7--7--7--7--7--7--7--7--7--7--7--7--7--7--7--7--7--7--7--7--7--7--| 


  PM PM PM PM PM PM PM PM PM PM PM PM PM PM PM PM PM PM PM PM PM PM PM PM 
  T  T  T  T  T  T  T  T  T  T  T  T  T  T  T  T  T  T  T  T  T  T  T  T 
--------------------------------------------------------------------------| 
--------------------------------------------------------------------------| 
--------------------------------------------------------------------------| 
--------------------------------------------------------------------------| 
--------------------------------------------------------------------------| 
--3--3--3--3--3--3--3--3--3--3--3--3--3--3--3--3--3--3--3--3--3--3--3--3--| 


  PM PM PM PM PM PM PM PM PM PM PM PM PM PM PM PM PM PM PM PM PM PM PM PM 
  T  T  T  T  T  T  T  T  T  T  T  T  T  T  T  T  T  T  T  T  T  T  T  T 
--------------------------------------------------------------------------| 
--------------------------------------------------------------------------| 
--------------------------------------------------------------------------| 
--------------------------------------------------------------------------| 
--------------------------------------------------------------------------| 
--3--3--3--3--3--3--3--3--3--3--3--3--5--5--5--5--5--5--5--5--5--5--5--5--| 


  PM PM PM PM PM PM PM PM PM PM PM PM PM PM PM PM PM PM PM PM PM PM PM PM 
  T  T  T  T  T  T  T  T  T  T  T  T  T  T  T  T  T  T  T  T  T  T  T  T 
--------------------------------------------------------------------------| 
--------------------------------------------------------------------------| 
--------------------------------------------------------------------------| 
--------------------------------------------------------------------------| 
--------------------------------------------------------------------------| 
--0--0--0--0--0--0--0--0--0--0--0--0--0--0--0--0--0--0--0--0--0--0--0--0--| 


  PM PM PM PM PM PM PM PM PM PM PM PM  PM PM PM PM PM PM PM PM PM PM PM PM 
  T  T  T  T  T  T  T  T  T  T  T  T   T  T  T  T  T  T  T  T  T  T  T  T 
--------------------------------------------------------------------------| 
--------------------------------------------------------------------------| 
--------------------------------------------------------------------------| 
--------------------------------------------------------------------------| 
--------------------------------------------------------------------------| 
--0--0--0--0--0--0--0--0--0--0--0--0--10-10-10-10-10-10-10-10-10-10-10-10-| 


  PM PM PM PM PM PM PM PM PM PM PM PM PM PM PM PM PM PM PM PM PM PM PM PM 
  T  T  T  T  T  T  T  T  T  T  T  T  T  T  T  T  T  T  T  T  T  T  T  T 
--------------------------------------------------------------------------| 
--------------------------------------------------------------------------| 
--------------------------------------------------------------------------| 
--------------------------------------------------------------------------| 
--------------------------------------------------------------------------| 
--0--0--0--0--0--0--0--0--0--0--0--0--0--0--0--0--0--0--0--0--0--0--0--0--| 


  PM PM PM PM PM PM PM PM PM PM PM PM PM PM PM PM PM PM PM PM PM PM PM PM 
  T  T  T  T  T  T  T  T  T  T  T  T  T  T  T  T  T  T  T  T  T  T  T  T 
--------------------------------------------------------------------------| 
--------------------------------------------------------------------------| 
--------------------------------------------------------------------------| 
--------------------------------------------------------------------------| 
--------------------------------------------------------------------------| 
--0--0--0--0--0--0--0--0--0--0--0--0--3--3--3--3--3--3--3--3--3--3--3--3--| 


  H.              H. 
---------------|---------------|---------------|---------------|---------------| 
---------------|---------------|---------------|---------------|---------------| 
---------------|---------------|---------------|---------------|---------------| 
---------------|---------------|---------------|---------------|---------------| 
---------------|---------------|---------------|---------------|---------------| 
--7------------|--L------------|---------------|---------------|---------------| 


Guitar 2 

Starts at (02:26) 


Distortion Guitar 

                                                         H. 
-------|-------|-------|-------|-------|-------|-------|---------------| 
-------|-------|-------|-------|-------|-------|-------|---------------| 
-------|-------|-------|-------|-------|-------|-------|---------------| 
-------|-------|-------|-------|-------|-------|-------|--7------------| 
-------|-------|-------|-------|-------|-------|-------|--7------------| 
-------|-------|-------|-------|-------|-------|-------|--7------------| 


  H.              H.              Q.     Q    E      H. 
---------------|---------------|------------------|---------------| 
---------------|---------------|------------------|---------------| 
---------------|---------------|------------------|---------------| 
--L------------|--3------------|--L------5----L/--|--0------------| 
--L------------|--3------------|--L------5----L/--|--0------------| 
--L------------|--3------------|--L------5----L/--|--0------------| 


                                           PM 
  Q.      Q    E      H.              Q    E  E  E  E     H. 
-------------------|---------------|-------------------|---------------| 
-------------------|---------------|-------------------|---------------| 
-------------------|---------------|-------------------|---------------| 
--L------10----L/--|--0------------|--L----0--3--3--3--|--7------------| 
--L------10----L/--|--0------------|--L----0--3--3--3--|--7------------| 
--L------10----L/--|--0------------|--L----0--3--3--3--|--7------------| 


  H.              H.              Q.     Q    E      H. 
---------------|---------------|------------------|---------------| 
---------------|---------------|------------------|---------------| 
---------------|---------------|------------------|---------------| 
--L------------|--3------------|--L------5----L/--|--0------------| 
--L------------|--3------------|--L------5----L/--|--0------------| 
--L------------|--3------------|--L------5----L/--|--0------------| 


                                           PM 
  Q.      Q    E      H.              Q    E  E  E  E 
-------------------|---------------|-------------------| 
-------------------|---------------|-------------------| 
-------------------|---------------|-------------------| 
--L------10----L/--|--0------------|--L----0--3--3--3--| 
--L------10----L/--|--0------------|--L----0--3--3--3--| 
--L------10----L/--|--0------------|--L----0--3--3--3--| 


Piano 


   E   E   E   E   E   E      E   E   E   E   E   E 
--------------------------|--------------------------| 
--15--13----------15--13--|----------15--13--12--13--| 
----------14--12----------|--14--12------------------| 
--------------------------|--------------------------| 
--------------------------|--------------------------| 
--------------------------|--------------------------| 


   E   E   E   E   E   E      E   E   E   E   E   E 
--------------------------|--------------------------| 
--15--13----------15--13--|----------15--13--12--13--| 
----------14--12----------|--14--12------------------| 
--------------------------|--------------------------| 
--------------------------|--------------------------| 
--------------------------|--------------------------| 


   E   E   E   E   E   E      E   E   E   E   E   E 
--------------------------|--------------------------| 
--15--13--12------15--13--|--12------15--13--12--13--| 
--------------12----------|------12------------------| 
--------------------------|--------------------------| 
--------------------------|--------------------------| 
--------------------------|--------------------------| 


   E   E   E   E   E   E      E   E   E   E   E   E 
--------------------------|--------------------------| 
--15--13--12------15--13--|--12------15--13--12--13--| 
--------------12----------|------12------------------| 
--------------------------|--------------------------| 
--------------------------|--------------------------| 
--------------------------|--------------------------| 


   E   E   E   E   E   E      E   E   E   E   E   E 
--------------------------|--------------------------| 
--15--13----------15--13--|----------15--13--12--13--| 
----------14--12----------|--14--12------------------| 
--------------------------|--------------------------| 
--------------------------|--------------------------| 
--------------------------|--------------------------| 


   E   E   E   E   E   E      E   E   E   E   E   E 
--------------------------|--------------------------| 
--15--13----------15--13--|----------15--13--12--13--| 
----------14--12----------|--14--12------------------| 
--------------------------|--------------------------| 
--------------------------|--------------------------| 
--------------------------|--------------------------| 


   E   E   E   E   E   E      E   E   E   E   E   E 
--------------------------|--------------------------| 
--15--13--12------15--13--|--12------15--13--12--13--| 
--------------12----------|------12------------------| 
--------------------------|--------------------------| 
--------------------------|--------------------------| 
--------------------------|--------------------------| 


   E   E   E   E   E   E      E   E   E   E   E   E 
--------------------------|--------------------------| 
--15--13--12------15--13--|--12------15--13--12--13--| 
--------------12----------|------12------------------| 
--------------------------|--------------------------| 
--------------------------|--------------------------| 
--------------------------|--------------------------| 


   E   E   E   E   E   E      E   E   E   E   E   E 
--------------------------|--------------------------| 
--15--13----------15--13--|----------15--13--12--13--| 
----------14--12----------|--14--12------------------| 
--------------------------|--------------------------| 
--------------------------|--------------------------| 
--------------------------|--------------------------| 


   E   E   E   E   E   E      E   E   E   E   E   E 
--------------------------|--------------------------| 
--15--13----------15--13--|----------15--13--12--13--| 
----------14--12----------|--14--12------------------| 
--------------------------|--------------------------| 
--------------------------|--------------------------| 
--------------------------|--------------------------| 


   E   E   E   E   E   E      E   E   E   E   E   E 
--------------------------|--------------------------| 
--15--13--12------15--13--|--12------15--13--12--13--| 
--------------12----------|------12------------------| 
--------------------------|--------------------------| 
--------------------------|--------------------------| 
--------------------------|--------------------------| 


   E   E   E   E   E   E      E   E   E   E   E   E 
--------------------------|--------------------------| 
--15--13--12------15--13--|--12------15--13--12--13--| 
--------------12----------|------12------------------| 
--------------------------|--------------------------| 
--------------------------|--------------------------| 
--------------------------|--------------------------| 


   E   E   E   E   E   E      E   E   E   E   E   E 
--------------------------|--------------------------| 
--15--13----------15--13--|----------15--13--12--13--| 
----------14--12----------|--14--12------------------| 
--------------------------|--------------------------| 
--------------------------|--------------------------| 
--------------------------|--------------------------| 


   E   E   E   E   E   E      E   E   E   E   E   E 
--------------------------|--------------------------| 
--15--13----------15--13--|----------15--13--12--13--| 
----------14--12----------|--14--12------------------| 
--------------------------|--------------------------| 
--------------------------|--------------------------| 
--------------------------|--------------------------| 


   E   E   E   E   E   E      E   E   E   E   E   E 
--------------------------|--------------------------| 
--15--13--12------15--13--|--12------15--13--12--13--| 
--------------12----------|------12------------------| 
--------------------------|--------------------------| 
--------------------------|--------------------------| 
--------------------------|--------------------------| 


                                                     Clean Guitar (Fade Out) 


   E   E   E   E   E   E      E   E   E   E   E   E     E  E  E  E  E   E 
--------------------------|--------------------------|---------------------| 
--15--13--12------15--13--|--12------15--13--12--13--|---------------------| 
--------------12----------|------12------------------|-----------9--7------| 
--------------------------|--------------------------|--------7--------10--| 
--------------------------|--------------------------|-----7---------------| 
--------------------------|--------------------------|--7------------------| 


  E  E  E  Q.        E  E  E  E  E  E     E  E  E  E  E  E 
------------------|--------------------|--------------------| 
------------------|--------------------|--------------------| 
-----------7------|--------0--2--0-----|--------0--2--0-----| 
--------7---------|--------------------|--------------------| 
-----7------------|-----3-----------3--|-----3-----------3--| 
--7---------------|--3-----------------|--3-----------------| 


  E  E  E  E  E  E     E  E  E  E  E  E     E  E  E  E  E  E 
--------------------|--------------------|--------------------| 
-----------7--------|-----------7--------|-----------6--------| 
--------------------|--------------------|--------------------| 
-----4-----------4--|-----4-----------4--|--------7-----7-----| 
--------5-----5-----|--------5-----5-----|-----8-----------8--| 
--0-----------------|--0-----------------|--0-----------------| 


  E  E  E  E  E  E     E  E  E  E  E   E     E  E  E  Q. 
--------------------|---------------------|------------------| 
-----------6--------|---------------------|------------------| 
--------------------|-----------9--7------|-----------7------| 
--------7-----7-----|--------7--------10--|--------7---------| 
-----8-----------8--|-----7---------------|-----7------------| 
--0-----------------|--7------------------|--7---------------| 


  E  E  E  E  E  E     E  E  E  E  E  E     E  E  E  E  E  E 
--------------------|--------------------|--------------------| 
--------------------|--------------------|-----------7--------| 
--------0--2--0-----|--------0--2--0-----|--------------------| 
--------------------|--------------------|-----4-----------4--| 
-----3-----------3--|-----3-----------3--|--------5-----5-----| 
--3-----------------|--3-----------------|--0-----------------| 


  E  E  E  E  E  E     E  E  E  E  E  E     E  E  E  E  E  E 
--------------------|--------------------|--------------------| 
-----------7--------|-----------6--------|-----------6--------| 
--------------------|--------------------|--------------------| 
-----4-----------4--|--------7-----7-----|--------7-----7-----| 
--------5-----5-----|-----8-----------8--|-----8-----------8--| 
--0-----------------|--0-----------------|--0-----------------| 


  E  E  E  E  E   E     E  E  E  Q.        E  E  E  E  E  E 
---------------------|------------------|--------------------| 
---------------------|------------------|--------------------| 
-----------9--7------|-----------7------|--------0--2--0-----| 
--------7--------10--|--------7---------|--------------------| 
-----7---------------|-----7------------|-----3-----------3--| 
--7------------------|--7---------------|--3-----------------| 


  E  E  E  E  E  E     E  E  E  E  E  E     E  E  E  E  E  E 
--------------------|--------------------|--------------------| 
--------------------|-----------7--------|-----------7--------| 
--------0--2--0-----|--------------------|--------------------| 
--------------------|-----4-----------4--|-----4-----------4--| 
-----3-----------3--|--------5-----5-----|--------5-----5-----| 
--3-----------------|--0-----------------|--0-----------------| 


  E  E  E  E  E  E     E  E  E  E  E  E 
--------------------|--------------------|| 
-----------6--------|-----------6--------|| 
--------------------|--------------------|| 
--------7-----7-----|--------7-----7-----|| 
-----8-----------8--|-----8-----------8--|| 
--0-----------------|--0-----------------|| 


Guitar 3 

Starts at (02:26) 


Disortion Guitar 


  S S S S S S S S S S S S    S S S S S S S S S S S S 
--5-5-5-5-5-5-5-5-5-5-5-5-|--5-5-5-5-5-5-5-5-5-5-5-5-| 
--5-5-5-5-5-5-5-5-5-5-5-5-|--5-5-5-5-5-5-5-5-5-5-5-5-| 
--5-5-5-5-5-5-5-5-5-5-5-5-|--5-5-5-5-5-5-5-5-5-5-5-5-| 
--------------------------|--------------------------| 
--------------------------|--------------------------| 
--------------------------|--------------------------| 


  S S S S S S S S S S S S    S S S S S S S S S S S S 
--3-3-3-3-3-3-3-3-3-3-3-3-|--3-3-3-3-3-3-3-3-3-3-3-3-| 
--5-5-5-5-5-5-5-5-5-5-5-5-|--6-6-6-6-6-6-6-6-6-6-6-6-| 
--5-5-5-5-5-5-5-5-5-5-5-5-|--5-5-5-5-5-5-5-5-5-5-5-5-| 
--------------------------|--------------------------| 
--------------------------|--------------------------| 
--------------------------|--------------------------| 


  S S S S S S S S S S S S    S S S S S S S S S S S S 
--------------------------|--------------------------| 
--7-7-7-7-7-7-7-7-7-7-7-7-|--7-7-7-7-7-7-------------| 
--------------------------|--------------7-7-7-7-7-7-| 
--4-4-4-4-4-4-4-4-4-4-4-4-|--4-4-4-4-4-4-5-5-5-5-5-5-| 
--------------------------|--------------5-5-5-5-5-5-| 
--------------------------|--------------------------| 


  S S S S S S S S S S S S    S S S S S S S S S S S S 
--------------------------|--------------------------| 
--6-6-6-6-6-6-6-6-6-6-6-6-|--6-6-6-6-6-6-------------| 
--------------------------|--------------5-5-5-5-5-5-| 
--3-3-3-3-3-3-3-3-3-3-3-3-|--3-3-3-3-3-3-3-3-3-3-3-3-| 
--------------------------|--------------3-3-3-3-3-3-| 
--------------------------|--------------------------| 


  S S S S S S S S S S S S    S S S S S S S S S S S S 
--5-5-5-5-5-5-5-5-5-5-5-5-|--5-5-5-5-5-5-5-5-5-5-5-5-| 
--5-5-5-5-5-5-5-5-5-5-5-5-|--5-5-5-5-5-5-5-5-5-5-5-5-| 
--5-5-5-5-5-5-5-5-5-5-5-5-|--5-5-5-5-5-5-5-5-5-5-5-5-| 
--------------------------|--------------------------| 
--------------------------|--------------------------| 
--------------------------|--------------------------| 


  S S S S S S S S S S S S    S S S S S S S S S S S S 
--3-3-3-3-3-3-3-3-3-3-3-3-|--3-3-3-3-3-3-3-3-3-3-3-3-| 
--5-5-5-5-5-5-5-5-5-5-5-5-|--6-6-6-6-6-6-6-6-6-6-6-6-| 
--5-5-5-5-5-5-5-5-5-5-5-5-|--5-5-5-5-5-5-5-5-5-5-5-5-| 
--------------------------|--------------------------| 
--------------------------|--------------------------| 
--------------------------|--------------------------| 


  S S S S S S S S S S S S    S S S S S S S S S S S S 
--------------------------|--------------------------| 
--7-7-7-7-7-7-7-7-7-7-7-7-|--7-7-7-7-7-7-------------| 
--------------------------|--------------7-7-7-7-7-7-| 
--4-4-4-4-4-4-4-4-4-4-4-4-|--4-4-4-4-4-4-5-5-5-5-5-5-| 
--------------------------|--------------5-5-5-5-5-5-| 
--------------------------|--------------------------| 


                                                     Clean Guitar 


  S S S S S S S S S S S S    S S S S S S S S S S S S    E  E  E  E  E   E 
--------------------------|--------------------------|---------------------| 
--6-6-6-6-6-6-6-6-6-6-6-6-|--6-6-6-6-6-6-------------|---------------------| 
--------------------------|--------------5-5-5-5-5-5-|-----------9--7------| 
--3-3-3-3-3-3-3-3-3-3-3-3-|--3-3-3-3-3-3-3-3-3-3-3-3-|--------7--------10--| 
--------------------------|--------------3-3-3-3-3-3-|-----7---------------| 
--------------------------|--------------------------|--7------------------| 


  E  E  E  E  E  E     E  E  E  E  E  E     E  E  E  E  E  E 
--------------------|--------------------|--------------------| 
--------------------|--------------------|--------------------| 
-----------9--------|-----------5--------|-----------5--------| 
--------7-----7-----|--------3-----3-----|--------3-----3-----| 
-----7-----------7--|-----3-----------3--|-----3-----------3--| 
--7-----------------|--3-----------------|--3-----------------| 


  E  E  E  E  E  E     E  E  E  E  E  E     E  E  E  E  E  E 
--------------------|--------------------|--------------------| 
--------------------|--------------------|--------------------| 
-----------2--------|-----------2--------|-----------2--------| 
--------0-----0-----|--------0-----0-----|--------0-----0-----| 
-----0-----------0--|-----0-----------0--|-----0-----------0--| 
--0-----------------|--0-----------------|--0-----------------| 


  E  E  E  E  E  E     E  E  E  E  E   E     E  E  E  E  E  E 
--------------------|---------------------|--------------------| 
--------------------|---------------------|--------------------| 
-----------2--------|-----------9--7------|-----------9--------| 
--------0-----0-----|--------7--------10--|--------7-----7-----| 
-----0-----------0--|-----7---------------|-----7-----------7--| 
--0-----------------|--7------------------|--7-----------------| 


  E  E  E  E  E  E     E  E  E  E  E  E     E  E  E  E  E  E 
--------------------|--------------------|--------------------| 
--------------------|--------------------|--------------------| 
-----------5--------|-----------5--------|-----------2--------| 
--------3-----3-----|--------3-----3-----|--------0-----0-----| 
-----3-----------3--|-----3-----------3--|-----0-----------0--| 
--3-----------------|--3-----------------|--0-----------------| 


  E  E  E  E  E  E     E  E  E  E  E  E     E  E  E  E  E  E 
--------------------|--------------------|--------------------| 
--------------------|--------------------|--------------------| 
-----------2--------|-----------2--------|-----------2--------| 
--------0-----0-----|--------0-----0-----|--------0-----0-----| 
-----0-----------0--|-----0-----------0--|-----0-----------0--| 
--0-----------------|--0-----------------|--0-----------------| 


Distortion Guitar 


  S S S S S S S S S S S S    S S S S S S S S S S S S 
--5-5-5-5-5-5-5-5-5-5-5-5-|--5-5-5-5-5-5-5-5-5-5-5-5-| 
--5-5-5-5-5-5-5-5-5-5-5-5-|--5-5-5-5-5-5-5-5-5-5-5-5-| 
--5-5-5-5-5-5-5-5-5-5-5-5-|--5-5-5-5-5-5-5-5-5-5-5-5-| 
--------------------------|--------------------------| 
--------------------------|--------------------------| 
--------------------------|--------------------------| 


  S S S S S S S S S S S S    S S S S S S S S S S S S 
--3-3-3-3-3-3-3-3-3-3-3-3-|--3-3-3-3-3-3-3-3-3-3-3-3-| 
--5-5-5-5-5-5-5-5-5-5-5-5-|--6-6-6-6-6-6-6-6-6-6-6-6-| 
--5-5-5-5-5-5-5-5-5-5-5-5-|--5-5-5-5-5-5-5-5-5-5-5-5-| 
--------------------------|--------------------------| 
--------------------------|--------------------------| 
--------------------------|--------------------------| 


  S S S S S S S S S S S S    S S S S S S S S S S S S 
--------------------------|--------------------------| 
--7-7-7-7-7-7-7-7-7-7-7-7-|--7-7-7-7-7-7-------------| 
--------------------------|--------------7-7-7-7-7-7-| 
--4-4-4-4-4-4-4-4-4-4-4-4-|--4-4-4-4-4-4-5-5-5-5-5-5-| 
--------------------------|--------------5-5-5-5-5-5-| 
--------------------------|--------------------------| 


  S S S S S S S S S S S S    S S S S S S S S S S S S 
--------------------------|--------------------------| 
--6-6-6-6-6-6-6-6-6-6-6-6-|--6-6-6-6-6-6-------------| 
--------------------------|--------------5-5-5-5-5-5-| 
--3-3-3-3-3-3-3-3-3-3-3-3-|--3-3-3-3-3-3-3-3-3-3-3-3-| 
--------------------------|--------------3-3-3-3-3-3-| 
--------------------------|--------------------------| 


  S S S S S S S S S S S S    S S S S S S S S S S S S 
--5-5-5-5-5-5-5-5-5-5-5-5-|--5-5-5-5-5-5-5-5-5-5-5-5-| 
--5-5-5-5-5-5-5-5-5-5-5-5-|--5-5-5-5-5-5-5-5-5-5-5-5-| 
--5-5-5-5-5-5-5-5-5-5-5-5-|--5-5-5-5-5-5-5-5-5-5-5-5-| 
--------------------------|--------------------------| 
--------------------------|--------------------------| 
--------------------------|--------------------------| 


  S S S S S S S S S S S S    S S S S S S S S S S S S 
--3-3-3-3-3-3-3-3-3-3-3-3-|--3-3-3-3-3-3-3-3-3-3-3-3-| 
--5-5-5-5-5-5-5-5-5-5-5-5-|--6-6-6-6-6-6-6-6-6-6-6-6-| 
--5-5-5-5-5-5-5-5-5-5-5-5-|--5-5-5-5-5-5-5-5-5-5-5-5-| 
--------------------------|--------------------------| 
--------------------------|--------------------------| 
--------------------------|--------------------------| 


  S S S S S S S S S S S S    S S S S S S S S S S S S 
--------------------------|--------------------------| 
--7-7-7-7-7-7-7-7-7-7-7-7-|--7-7-7-7-7-7-------------| 
--------------------------|--------------7-7-7-7-7-7-| 
--4-4-4-4-4-4-4-4-4-4-4-4-|--4-4-4-4-4-4-5-5-5-5-5-5-| 
--------------------------|--------------5-5-5-5-5-5-| 
--------------------------|--------------------------| 


                                                     Clean Guitar (Fade Out) 


  S S S S S S S S S S S S    S S S S S S S S S S S S    E  E  E  E  E   E 
--------------------------|--------------------------|---------------------| 
--6-6-6-6-6-6-6-6-6-6-6-6-|--6-6-6-6-6-6-------------|---------------------| 
--------------------------|--------------5-5-5-5-5-5-|-----------9--7------| 
--3-3-3-3-3-3-3-3-3-3-3-3-|--3-3-3-3-3-3-3-3-3-3-3-3-|--------7--------10--| 
--------------------------|--------------3-3-3-3-3-3-|-----7---------------| 
--------------------------|--------------------------|--7------------------| 


  E  E  E  E  E  E     E  E  E  E  E  E     E  E  E  E  E  E 
--------------------|--------------------|--------------------| 
--------------------|--------------------|--------------------| 
-----------9--------|-----------5--------|-----------5--------| 
--------7-----7-----|--------3-----3-----|--------3-----3-----| 
-----7-----------7--|-----3-----------3--|-----3-----------3--| 
--7-----------------|--3-----------------|--3-----------------| 


  E  E  E  E  E  E     E  E  E  E  E  E     E  E  E  E  E  E 
--------------------|--------------------|--------------------| 
--------------------|--------------------|--------------------| 
-----------2--------|-----------2--------|-----------2--------| 
--------0-----0-----|--------0-----0-----|--------0-----0-----| 
-----0-----------0--|-----0-----------0--|-----0-----------0--| 
--0-----------------|--0-----------------|--0-----------------| 


  E  E  E  E  E  E     E  E  E  E  E   E     E  E  E  E  E  E 
--------------------|---------------------|--------------------| 
--------------------|---------------------|--------------------| 
-----------2--------|-----------9--7------|-----------9--------| 
--------0-----0-----|--------7--------10--|--------7-----7-----| 
-----0-----------0--|-----7---------------|-----7-----------7--| 
--0-----------------|--7------------------|--7-----------------| 


  E  E  E  E  E  E     E  E  E  E  E  E     E  E  E  E  E  E 
--------------------|--------------------|--------------------| 
--------------------|--------------------|--------------------| 
-----------5--------|-----------5--------|-----------2--------| 
--------3-----3-----|--------3-----3-----|--------0-----0-----| 
-----3-----------3--|-----3-----------3--|-----0-----------0--| 
--3-----------------|--3-----------------|--0-----------------| 


  E  E  E  E  E  E     E  E  E  E  E  E     E  E  E  E  E  E 
--------------------|--------------------|--------------------| 
--------------------|--------------------|--------------------| 
-----------2--------|-----------2--------|-----------2--------| 
--------0-----0-----|--------0-----0-----|--------0-----0-----| 
-----0-----------0--|-----0-----------0--|-----0-----------0--| 
--0-----------------|--0-----------------|--0-----------------| 


  E  E  E  E  E   E     E  E  E  E  E  E     E  E  E  E  E  E 
---------------------|--------------------|--------------------| 
---------------------|--------------------|--------------------| 
-----------9--7------|-----------9--------|-----------5--------| 
--------7--------10--|--------7-----7-----|--------3-----3-----| 
-----7---------------|-----7-----------7--|-----3-----------3--| 
--7------------------|--7-----------------|--3-----------------| 


  E  E  E  E  E  E     E  E  E  E  E  E     E  E  E  E  E  E 
--------------------|--------------------|--------------------| 
--------------------|--------------------|--------------------| 
-----------5--------|-----------2--------|-----------2--------| 
--------3-----3-----|--------0-----0-----|--------0-----0-----| 
-----3-----------3--|-----0-----------0--|-----0-----------0--| 
--3-----------------|--0-----------------|--0-----------------| 


  E  E  E  E  E  E     E  E  E  E  E  E 
--------------------|--------------------|| 
--------------------|--------------------|| 
-----------2--------|-----------2--------|| 
--------0-----0-----|--------0-----0-----|| 
-----0-----------0--|-----0-----------0--|| 
--0-----------------|--0-----------------|| 


Duration Legend 
--------------- 
W - whole 
H - half 
Q - quarter 
E - 8th 
S - 16th 
T - 32nd 
X - 64th 
. - note dotted 
|-n-|  - n-tuplets 


Tablature Legend 
---------------- 
L - tied note 
x - dead note 
g - grace note 
(n) - ghost note 
> - accentuded note 
NH - natural harmonic 
AH - artificial harmonic 
TH - tapped harmonic 
SH - semi harmonic 
PH - pitch harmonic 
h - hammer on 
p - pull off 
b - bend 
br - bendRelease 
pb - preBend 
pbr - preBendRelease 
brb - bendReleaseBend 
\n/ - tremolo bar dip 
\n - tremolo bar dive 
-/n - tremolo bar Release up 
/n\ - tremolo bar inverted dip 
/n - tremolo bar return 
-\n - tremolo bar Release down 
S - shift slide 
s - legato slide 
/ -  slide into from below or out of upwards 
\ -  slide into from above or out of downwards 
~ - vibrato 
W - wide vibrato 
tr - trill 
TP - tremolo picking 
T - tapping 
S - slap 
P - pop 
< - fade in 
^ - brush up 
v - brush down 

 
		  

auto scroll beats size up size down change color hide chords drawings
tab show chords e-chords YouTube Clip e-chords hide all tabs e-chords go to top tab

share