Periphery

All New Materials (intro)

Periphery

tabs Expert expert

by  ANG-LETRA

save to print version add songbook text version e-mail correct tuner
chordsukulelecavacokeyboardtabbassdrumsharmonicaflute Guitar Pro
close

there isn't a video lesson for this song

chords

All New Materials (intro)

	  		

D|-0~---0--0---------------0-----------0------0--------0-----------0------| 
A|-10~--10-12-12-------------12\--7~-7-7-7--7-7-7------0-------------4----| 
F|-13~--13-13-13--------13--------8~-8-8-8--8-8-8--4-4-4-4-------2-----2--| 
C|-11~--11-11-11-----11-----------6~-6---6--6---6--2-2---2-4---4----------| 
G|-0~---0--0--9--999--------------4~-4---4--4---4--0-0---0-4-4------------| 
C|---------------------------------------------------------4--------------| 

D|--------------------5-----0-|-0~---12--------------------0-----------0---| 
A|-----5------4---------9-----|-10~-----10----12--------12--------7~-7-7-7-| 
F|-----4------4--6/7------6---|-13~-----------13-------------13\--8~-8-8-8-| 
C|-4h6-6--6-6-6---------------|-11~--------11-11-----11-----------6~-6---6-| 
G|-4---4--4-4-4---------------|-0~------------9--999--------------4~-4---4-| 
C|----------------------------|--------------------------------------------| 

D|---0--------0-----------0-------------------4-------4------| 
A|-7-7-7------0-------------4-------5------4----4h5-7---7p0--| 
F|-8-8-8--4-4-4-4-------2-----2-----4------4-----------------| 
C|-6---6--2-2---2-4---4---------4h6-6--6-6-6-----------------| 
G|-4---4--0-0---0-4-4-----------4---4--4-4-4-----------------| 
C|----------------4------------------------------------------| 
 
		  

auto scroll beats size up size down change color hide chords drawings
tab show chords e-chords YouTube Clip e-chords hide all tabs e-chords go to top tab

share