save to print version add songbook text version e-mail correct tuner
chordsukulelecavacokeyboardtabbassdrumsharmonicaflute Guitar Pro
close

there isn't a video lesson for this song

chords

Animal

Key:  A More
Animal Key EE
Animal Key FF
Animal Key F#F#
Animal Key GG(one step down)
Animal Key G#G#(half step down)
Animal Key AA(original key)
Animal Key A#A#(half step up)
Animal Key BB(one step up)
Animal Key CC
Animal Key C#C#
Animal Key DD
Animal Key D#D#
	  				Intro:
E|------------------------------------
B|------------------------------------
G|------------------------------------
D|------------------------------------                (4x)
A|---7-7---7-7---7-7---0-0--5-6-7-7---
E|------------------------------------

Parte 1:
E|--------------------------------------------           Animal, bem que quando o seu sangue pensa
B|--------------------------------------------             É feito um rio que se adensa
G|--------------------------------------------     (3x)  Transforma e borda um novo desenho leito-tetas
D|--------------------------------------------                         Incham lábios,
A|---7-7---7-7---7-7---7-7---7-7--0-0--5-6-7-7                   E os exercícios sábios somem
E|--------------------------------------------

Parte 2:
E|---------------------------------------------
B|---------------------------------------------
G|---------------------------------------------    E só parece sábia a natureza e os bichos que comem
D|---------------------------------------------                Aparenta que não há outra certeza
A|---7-7---7-7---7-7---7-7---7-7--7-7--5-5--5-5
E|---------------------------------------------

Parte 3:
E|------------------------------------------------------
B|------------------------------------------------------     Enquanto que e quando isso não se contenta
G|------------------------------------------------------                 Tenta, tenta, tenta
D|------------------------------------------------------                 São coisas da ávida
A|--5-5-------------------------------8-8--8-8--0-0-----              Que não se finge impávida
E|-------8-8---7-7-8-7-----8-8---8-8-----------------3-3

Parte 4 :
E|-------------------------------------------
B|-------------------------------------------
G|--9-9---9-9---9-9---9-9---9-9---0-0-7-7-8-8      (3x)
D|--9-9---9-9---9-9---9-9---9-9---0-0-7-7-8-8
A|--7-7---7-7---7-7---7-7---7-7---0-0-5-5-6-6
E|-------------------------------------------

Parte 5:
E|-------------------------------------------------
B|-------------------------------------------------
G|--9-9---9-9---9-9---9-9---9-9---9-9---777-777-777
D|--9-9---9-9---9-9---9-9---9-9---9-9---777-777-777
A|--7-7---7-7---7-7---7-7---7-7---7-7---555-555-555
E|-------------------------------------------------

Parte 6:
E|----------------------------------------------------
B|----------------------------------------------------
G|--7-7-----------------------------10-10---10-10-----
D|--7-7--10-10---9-9-10-9----10-10--10-10---10-10--7-7
A|--5-5--10-10---9-9-10-9----10-10--08-08---08-08--7-7
E|-------08-08---7-7-08-7----08-08-----------------5-5
 
		  

See also:

tabs Legião Urbana - O Teatro Dos Vampiros tabs Legião Urbana - Será tabs Legião Urbana - A Ordem Dos Templários tabs Legião Urbana - Tempo Perdido tabs Paralamas do Sucesso - Alagados tabs Ira! - Eu quero sempre mais (Solo)
e-chords

Other versions:

tabs Def Leppard - Animal tabs Jebediah - Animal tabs Pearl Jam - Animal tabs Pedro Luis e a Parede - Animal tabs Reckless Love - Animal Attraction tabs The Wildbunch - Animal Attraction
auto scroll beats size up size down change color hide chords drawings
tab show chords e-chords YouTube Clip e-chords hide all tabs e-chords go to top tab

share