Pearl Jam

home > Pearl Jam

Thumbing My Way Tab

Pearl Jam

Difficulty: AdvancedAdvanced

tuner correct add songbook print version text version save to e-mail
chordsukulelecavacokeyboardtabbassdrumsharmonicsflute Guitar Pro
chords

Thumbing My Way

Year: 2002 - Album: Riot Act

  		Versao 1

intro/verse:
--------------------------------------0------2--0-----------------------------
-3--3---3--3-----------3---3----3---3---3----3--3--3------3--3--2-------------
-2----2----2-------------0-0---0----2--------2-----2----0----0--0-------------
-0---------4--4-2-0-----------2-----0-----4--4--2--0---------2--2-------------
---------------------2-------0------------------------2------0--0-------------
------------------------------------------------------------------------------
                                                                              
'chorus':
----3--3---7---7--5--3------------------------3-------------------------------
---3---3---3---3--3--3--------------------1---0-------------------------------
--4----4---4---4--4--4------0-------0--0--2---0-------------------------------
-0-----0---0---0--0--0----0-------2----2--2---0-------------------------------
------------------------2-----2-3------3--2---2-------------------------------
---------------------------------------3------3-------------------------------
                                                                              
thing:
--8---8-8----8--8------7--7---------------------------------------------------
--8---8-8----8--8------8--8---6--6--6-6----6----------------------------------
--7---7-7----7--7-------------7--7--7-7----0----------------------------------
--0---0-0----------------------------------7----------------------------------
-----------8---------7------5------------8------------------------------------
------------------8-----------------------------------------------------------

Versao 2:

Intro
|--2--2----------3--3--|--2--2----------3--3-----|
|--3--3----------3--3--|--3--3----------3--3--2--|
|--2--2--2-------0--0--|--2--2--2-------0--0--2--|
|-----4--4-2-0---0--2--|-----4--4-2-0---0--2--2--|
|--------------2-2-----|--------------2-2--------|
|----------------------|-------------------------|

Verse
|--2--2--3--3-----|--2--2----------3--3-----|
|--3--3--3--3--2--|--3--3----------3--3--2--|
|--2--2--0--0--2--|--2--2--2-------0--0--2--|
|-----4--0--2--2--|-----4--4-2-0---0--2--2--|
|--------2--------|--------------2-2--------|
|-----------------|-------------------------|

Chorus
(listen to the song to get the right strumming pattern)

|------------7---------------------------------------3-------------------------------------3--|
|--8---------8--------------------8------------------5-------------------------------------3--|
|--7---------7--------------------7------------------5-------------------------------------4--|
|--5---------0--------------------5------------------5-------------------------------------5--|
|----------------------------------------------------3-------------------------------------5--|
|------------------------------------------------------------------------------------------3--|
     I can't be free with what's locked inside of me   If there was a key, you took it in your hands
     All the rusted signs....

BRIDGE
(listen to the song to get the right strumming pattern)

|---8------------------------------------------------------------|
|---5-------------------------5------------------------5-5-5-----|
|---5-------------------------5------------------------5-4h5-----|
|---5-------------------------5------------------------5-5-5-----|
|---0------------------------------------------------------------|
|----------------------------------------------------------------|
I let go of a road  thinking that's what held me back

|-1----------------------------------1-------------------------|
|-3----------------------------------1-------------------------|
|-3----------------------------------2-------------------------|
|-3----------------------------------3-------------------------|
|-1----------------------------------3-------------------------|
|------------------------------------1-------------------------|
And in time I've realized  it's now wrapped around my neck.....
	  

Search Paypal
auto scroll beats size up size down change color hide chords drawings
tab show chords e-chords YouTube Clip e-chords hide all tabs e-chords go to top tab