Pearl Jam

home > Pearl Jam

Out of my mind Tab

Pearl Jam

Difficulty: nolevelnolevel

by Apocalyptica

tuner correct add songbook print version text version save to e-mail
chordsukulelecavacokeyboardtabbassdrumsharmonicsflute Guitar Pro
chords

Out of my mind

(Not For You Single)

  		Transcribed by: Chris Wilson 
Email: [email protected] 
 
One Big Improvisation. 
 
My Tab Is Only An Example Of What They Did At One Show, So Muck Around 
With It And Have Some Fun! 
 
-|-------------------------------------------------------|-------------------- 
-|-----6-----6-----6-----6-----4-----4-----4-----4-------|-------------------- 
-|-----4-----4-----4-----4-----2-----2-----2-----2-------|-------------------- 
-|-----6-----6-----6-----6-----4-----4-----4-----4-------|-------------------- 
-|--4-----4-----4-----4-----2-----2-----2-----2-----2/4--|-------------------- 
-|-------------------------------------------------------|-------------------- 
 Whole Song  Gtr.1 w/fingers                                                   
 
-|------------------------------------------|--------------------------------- 
-|--6--x--6--6--6--6\4--4--x-x--4--4--4--4--|--------------------------------- 
-|--4--x--4--4--4--4\2--2--x-x--2--2--2--2--|--------------------------------- 
-|--6--x--6--6--6--6\4--4--x-x--4--4--4--4--|--------------------------------- 
-|------------------------------------------|--------------------------------- 
-|------------------------------------------|--------------------------------- 
  Intro Gtr.2                    (Improvise)                                   
 
-|--------------------------------------------------------------|------------- 
-|--6--6--x--6--4--6---6--4--6--6\4--4--x--4--4--2--4--4--2--4--|------------- 
-|--4--4--x--4--4--4---4--4--4--4\2--2--x--2--2--2--2--2--2--2--|------------- 
-|--6--6--x--6--6--6---6--6--6--6\4--4--x--4--4--4--4--4--4--4--|------------- 
-|--------------------------------------------------------------|------------- 
-|--------------------------------------------------------------|------------- 
  Verse Gtr.2                                       (Improvise)                
 
-|-----------------------------------------------------|---------------------- 
-|--x--9-----9-----9----------------4--x--2--4--x-x-x--|---------------------- 
-|--x--8b10--8b10--8b10r8p6---6\2---2--x--2--2--x-x-x--|---------------------- 
-|--------------------------8-------4--x--4--4--x-x-x--|---------------------- 
-|-----------------------------------------------------|---------------------- 
-|-----------------------------------------------------|---------------------- 
 Chorus Gtr. 2  (Improvise) Example 1                                          
 
-|-------------------------------------------|-------------------------------- 
-|--9b11-9b11-9b11-9-6------4--x-x--4--4--4--|-------------------------------- 
-|---------------------8\2--2--x-x--2--2--2--|-------------------------------- 
-|--------------------------4--x-x--4--4--4--|-------------------------------- 
-|-------------------------------------------|-------------------------------- 
-|-------------------------------------------|-------------------------------- 
  Example 2                                                                    
 
-|--x-x--14----12--14---14--14----12--14--------------------|----------------- 
-|--x-x--14----12--14---14--14----12--14--\--4--x--4--4--4--|----------------- 
-|--x-x-----13-----------------13---------\--2--x--2--2--2--|----------------- 
-|-------------------------------------------4--x--4--4--4--|----------------- 
-|----------------------------------------------------------|----------------- 
-|----------------------------------------------------------|----------------- 
  Example 3                                                                    
 
-|--------------------------------------------------|------------------------- 
-|--6--6--6--6--6--6--6--6--4--4--4--4--4--4--4--4--|------------------------- 
-|--4--4--4--4--4--4--4--4--2--2--2--2--2--2--2--2--|------------------------- 
-|--6--6--6--6--6--6--6--6--4--4--4--4--4--4--4--4--|------------------------- 
-|--------------------------------------------------|------------------------- 
-|--------------------------------------------------|------------------------- 
  Chorus 2 Gtr. 2                             Repeat                           
 
-|-------------------------------------------------------------|-------------- 
-|--------------------------------------------9----9--9--9-----|-------------- 
-|----------------------------------x------6--8b10-10-10-10r8--|-------------- 
-|----------------------------------x--6h8---------------------|-------------- 
-|--x--x--6--6--6--6\4-4-x-x-4-4-4-----------------------------|-------------- 
-|-------------------------------------------------------------|-------------- 
  Solo Gtr.2 (Improvise)                                                       
 
-|---------------------------------|---------------------|-------------------- 
-|---------------------------------|---------------------|-------------------- 
-|--x-10-10-10-8-6-x-10-10-10-8-6--|--8b10r8-6--------8--|-------------------- 
-|---------------------------------|-----------6-6h10----|-------------------- 
-|---------------------------------|---------------------|-------------------- 
-|---------------------------------|---------------------|-------------------- 
  Pre-Bends On The 10's                                                        
 
-|---------------------|-----------------------------|------------------|----- 
-|---------------------|-----------------------------|------------------|----- 
-|---------6-8b10r8p6--|------6-8b10r8p6---6---------|--x--6------------|----- 
-|--x--6h8-------------|--6h8------------8---8--6vv--|--x--6h8-6h8p6----|----- 
-|---------------------|-----------------------------|---------------8--|----- 
-|---------------------|-----------------------------|------------------|----- 
                                                                               
 
-|--x--12--12--9-----9---12-12--9-------9---|--------------------------------- 
-|--x--12--12--9-----9---12-12--9-------9---|--------------------------------- 
-|----------------11----------------11------|--------------------------------- 
-|------------------------------------------|--------------------------------- 
-|------------------------------------------|--------------------------------- 
-|------------------------------------------|--------------------------------- 
                                                                               
 
-|---------|---------|-------------------------------------------------------- 
-|---------|---------|-------------------------------------------------------- 
-|--6------|--6h8p6--|-------------------------------------------------------- 
-|--6h8p6--|--6------|-------------------------------------------------------- 
-|---------|---------|-------------------------------------------------------- 
-|---------|---------|-------------------------------------------------------- 
 Last Verse   Repeat For Half Of Verse, 1st Part x8 2nd Part x8                
 
-|--------------------------|--------------------------|---------------------- 
-|--6--6--6--6--6--6--6--6--|--4--4--4--4--4--4--4--4--|---------------------- 
-|--4--4--4--4--4--4--4--4--|--2--2--2--2--2--2--2--2--|---------------------- 
-|--6--6--6--6--6--6--6--6--|--4--4--4--4--4--4--4--4--|---------------------- 
-|--------------------------|--------------------------|---------------------- 
-|--------------------------|--------------------------|---------------------- 
  Last Chorus Repeat                              (Play Licks Between Phrase)  
 
-|----------4--|-------------------------------------------------------------- 
-|--------6----|-------------------------------------------------------------- 
-|------4------|-------------------------------------------------------------- 
-|----6--------|-------------------------------------------------------------- 
-|--4----------|-------------------------------------------------------------- 
-|-------------|-------------------------------------------------------------- 
  Last Chord Gtr.1                                                             
 
 
 
 
 

	  

Search Paypal
auto scroll beats size up size down change color hide chords drawings
tab show chords e-chords YouTube Clip e-chords hide all tabs e-chords go to top tab