Pearl Jam

home > Pearl Jam

Jeremy (unplugged) Tab

Pearl Jam

Difficulty: ExpertExpert

tuner correct add songbook print version text version save to e-mail
chordsukulelecavacokeyboardtabbassdrumsharmonicsflute Guitar Pro
chords

Jeremy (unplugged)

  		 
Introdução  
------------------------------------------------------------------| 
------------------------------------------------------------------| 
----------------------------5-----------------7-------------------| 
--------7---5---------7---5?--5-------7---5-7---------7---5-5-5-5-| 
--0-5h7---0-----0-5h7---0-------0-5h7---0-------0-5h7---0---------| 
------------------------------------------------------------------| 
 
O bom seria tocar ela com dois violões p/ cada um fazer um riff diferente! 
 
Riff 1:                        Riff 2: 
 
E|---------------------|         E|---------------------| 
B|---------------------|         B|---------------------| 
G|---------------------|         G|--------7---9-9-9-9--| 
D|--------7---5-5-5-5--|         D|--------7---9-9-9-9--| 
A|--0-5h7---0----------|         A|--0-5h7---0----------| 
E|---------------------|         E|---------------------| 
 
 
 Riff 1+ Riff 2 
 
At home, drawing pictures of 
Mountain tops with him on top  
Lemin yellow sun, arms raised in a V  
And the dead lay in pools of maroon below  
                         e|--9h7-5--- 
                         B|---------- 
 Riff 1 + Riff 2 
Daddy didn't give attention  
Oh, to the fact that mommy didn't care 
           e|--7h5-- 
           B|------- 
King Jeremy the wicked...oh, ruled his world 
 
 F          G          A 
Jeremy spoke in class today (2x) 
e|--3~5~7~-5h7-9-7-5-5h7-9-7-5- 
B|----------------------------- 
  
 Riff 1 + Riff 2 
Clearly I remember pickin' on the boy  
Seemed a harmless little fuck  
         e|--7h5-3--- 
         B|---------- 
 
Ooh, but we unleashed a lion 
Gnashed his teeth and bit 
The recess lady's breast 
How can I forget? 
And he hit me with a surprise left 
                   e|--7-7-7-7-7-- 
                   B|--7-7-7-7-7-- 
                   G|--7-7-7-7-7--  
 
My jaw left hurtin'...ooh, dropped wide open  
Just like the day...oh, like the day I heard  
Daddy didn't give affection, no 
And the boy was something that mommy wouldn't wear  
King Jeremy the wicked...oh, ruled his world 
 
F           G            A 
Jeremy spoke in class today (3x) 
e|--3~5~7~-5h7-9-7-5-5h7-9-7-5- 
B|----------------------------- 
 
Riff 1 varias vezes 
Woo...13x 
   
Try to forget this...try to forget this 
Try to erase this...try to erase this  
 
F       G       A 
from the blackboard 
F           G           A 
Jeremy spoke in class today (2x) 
e|--3~5~7~-5h7-9-7-5-5h7-9-7-5- 
B|----------------------------- 
 
Jeremy spoke in, spoke in (2x) 
                E|--5-5-5-5-5-5-5- 
                B|--6-6-6-6-6-6-6- 
                G|--5-5-5-5-5-5-5- 
 
Jeremy spoke in class today 
E|--5-5-5-5-5-5-5-5-5-5-5-5- 
B|--6-6-6-6-6-6-6-6-6-6-6-6- 
G|--5-5-5-5-5-5-5-5-5-5-5-5- 
 
 
 
Toca essa base no Woo? abaixo 
--8-8-8-8-8-8-8-8?-10-10-10-10-10-10--12-12-12-12-12-12- 
--9-9-9-9-9-9-9-9?-11-11-11-11-11-11--13-13-13-13-13-13- 
-10-10-10-10-10-10-12-12-12-12-12-12?-14-14-14-14-14-14- 
-10-10-10-10-10-10-12-12-12-12-12-12?-14-14-14-14-14-14- 
--8-8-8-8-8-8-8-8--10-10-10-10-10-10--12-12-12-12-12-12- 
--8-8-8-8-8-8-8-8--10-10-10-10-10-10--12-12-12-12-12-12- 
 
Woo...24x 
 
Essa parte é toda feita com a base logo acima 
 
Uooooooooo ohohohohohohohho ye ah 
Spoke in spoke in spoke in spoke in 
Uoooooooo ohohohohohohohoho uo oo uo oo uo oo 
uooooooooooooo  oo ha ha ha ha ha ha ye 
Han han han han han han ye han han  han 
 
 
e|----------------------------------------------------------------------------| 
B|------8-----7-----3-----5-------1-----0-------1-----3-------1-----0-------5-| 
G|----9-----7-----4-----5---5---2-----0---0---2-----4---4---2-----0---0---4---| 
D|----------------------------------------------------------------------------| 
A|--0-----0-----0-----0-------0-----0-------0-----0-------0-----0-------0-----| 
E|----------------------------------------------------------------------------| 
 
 
_______________________________________________________ 
Contribuição: Thiago Andrade Cavalcante([email protected]) 

	  

Full key step upFull key step up
Half key step upHalf key step up
Half key step downHalf key step down
Full key step downFull key step down
Search Paypal
auto scroll beats size up size down change color hide chords drawings
tab show chords e-chords YouTube Clip e-chords hide all tabs e-chords go to top tab