Pearl Jam

home > Pearl Jam

I Can't Help Falling In Love With You Tab

Pearl Jam

Difficulty: BeginnerBeginner

tuner correct add songbook print version text version save to e-mail
chordsukulelecavacokeyboardtabbassdrumsharmonicsflute Guitar Pro
chords

I Can't Help Falling In Love With You

  		 
My recording of this is kind of poor... 
 
-|-----------------------------------------0------|--------------------------- 
-|-------------------3-----------1------------1---|--------------------------- 
-|-------2---------3---3-----------2------------0-|--------------------------- 
-|-----3---3-----3-------3-----3-----3---2--------|--------------------------- 
-|---3-------3-1-------------3---------3----------|--------------------------- 
-|-1-----------------------1----------------------|--------------------------- 
                                                                               
 
-|--------------------------------1-----------------|------------------------- 
-|-------1------------1---------3---3---------1-----|------------------------- 
-|---------2--------2---2-----2-------2-----0---0---|------------------------- 
-|-----3-----3----2-------2-0-------------2-------2-|------------------------- 
-|---3----------0-----------------------3-----------|------------------------- 
-|-1------------------------------------------------|------------------------- 
   Wise        man                             only                            
 
-|-------------------------0-----------0----------|--------------------------- 
-|-------3-----------------------1----------------|--------------------------- 
-|-----3---3---------2---------3---3-------3------|--------------------------- 
-|---3-------3-----3---3-----2-------2---2---2----|--------------------------- 
-|-1-------------3-------3------------------------|--------------------------- 
-|-------------1----------------------------------|--------------------------- 
   Fools       rush        in                 but                              
 
-|-------------------0------------------------------|------------------------- 
-|-------3-------------1---------1-----------3------|------------------------- 
-|-----3---3-------3-----3---------2-------3---3----|------------------------- 
-|---3-------3---2-------------3-----3---5-------5--|------------------------- 
-|-1-----------3-------------3----------------------|------------------------- 
-|-------------------------1-----------3------------|------------------------- 
   I           can't       help        falling in                              
 
-|-------------------0--------------|----------------------------------------- 
-|-------1-------------1----1-------|----------------------------------------- 
-|---------2-------3-----3--2-------|----------------------------------------- 
-|-----3-----3---2----------3-------|----------------------------------------- 
-|---3---------3------------3-------|----------------------------------------- 
-|-1------------------------1-------|----------------------------------------- 
   Love        with         you                                                
 
-|---------------------------------------------------------------------|------ 
-|---------------------------------------------------------------------|------ 
-|-2-2-2-2-2-2-2-2--2-2-2-2-2-2-2-2------------------------------------|------ 
-|-3-3-3-3-3-3-3-3--2-2-2-2-2-2-2-2--3-3-3-3-3-3-3-3--2-2-2-2-2-2-2-2--|------ 
-|-3-3-3-3-3-3-3-3--0-0-0-0-0-0-0-0--5-5-5-5-5-5-5-5--3-3-3-3-3-3-3-3--|------ 
-|-1-1-1-1-1-1-1-1-----------------------------------------------------|------ 
   Take             my                                         should it       
 
-|-------------------------------------------------------------------|-------- 
-|-------------------------------------------------------------------|-------- 
-|------------------2-2-2-2-2-2-2-2----------------------------------|-------- 
-|-3-3-3-3-3-3-3-3--3-3-3-3-3-3-3-3--2-2-2-2-2-2-2-2-2-2-2-2-2-2-2-2-|-------- 
-|-1-1-1-1-1-1-1-1--3-3-3-3-3-3-3-3--3-3-3-3-3-3-3-3-3-3-3-3-3-3-3-3-|-------- 
-|------------------1-1-1-1-1-1-1-1----------------------------------|-------- 
   Be               a                sin                         if            
 
-|--------------------------------------------------------------------|------- 
-|--------------------------------------------------------------------|------- 
-|------------------0-0-0-0-0-0-0-0--2-2-2-2-2-2-2-2------------------|------- 
-|-3-3-3-3-3-3-3-3--2-2-2-2-2-2-2-2--3-3-3-3-3-3-3-3--5-5-5-5-5-5-5-5-|------- 
-|-1-1-1-1-1-1-1-1--3-3-3-3-3-3-3-3--3-3-3-3-3-3-3-3--5-5-5-5-5-5-5-5-|------- 
-|-----------------------------------1-1-1-1-1-1-1-1--3-3-3-3-3-3-3-3-|------- 
   I                can't            help             falling in               
 
-|-------------------------------------------------------------------|-------- 
-|------------------1------------------------------------------------|-------- 
-|-2-2-2-2-2-2-2-2--3----------------2-2-2-2-2-2-2-2-2-2-2-2-2-2-2-2-|-------- 
-|-3-3-3-3-3-3-3-3--2-2-2-2-2-2-2-2--3-3-3-3-3-3-3-3-3-3-3-3-3-3-3-3-|-------- 
-|-3-3-3-3-3-3-3-3--3-3-3-3-3-3-3-3--3-3-3-3-3-3-3-3-3-3-3-3-3-3-3-3-|-------- 
-|-1-1-1-1-1-1-1-1-------------------1-1-1-1-1-1-1-1-1-1-1-1-1-1-1-1-|-------- 
   Love             with             you                                       
 
-|-0------------0-------0-------------0-----0-------------0---------|--------- 
-|-1------------0-------1-------------0-----1-------------0---------|--------- 
-|-2------------1-------2-------------1-----2-------------1---------|--------- 
-|-2------------0-------2-------------0-----2-------------0---------|--------- 
-|-0------------2-------0-------------2-----0-------------2---------|--------- 
-|--------------0---------------------0-------------------0---------|--------- 
   Like a river flows   surely to the sea   darling so it goes some            
 
-|-0-0-0-0-0-0-0-0--2-2-2-2-2-2-2-2------------------------------------|------ 
-|-1-1-1-1-1-1-1-1--1-1-1-1-1-1-1-1--3-3-3-3-3-3-3-3--1-1-1-1-1-1-1-1--|------ 
-|-2-2-2-2-2-2-2-2--2-2-2-2-2-2-2-2--3-3-3-3-3-3-3-3--3-3-3-3-3-3-3-3--|------ 
-|-2-2-2-2-2-2-2-2--0-0-0-0-0-0-0-0--5-5-5-5-5-5-5-5--2-2-2-2-2-2-2-2--|------ 
-|-0-0-0-0-0-0-0-0-------------------5-5-5-5-5-5-5-5--3-3-3-3-3-3-3-3--|------ 
-|-----------------------------------3-3-3-3-3-3-3-3-------------------|------ 
   Things           are  meant  to  be                                         
 
-|--------------------------------------------------------------------|------- 
-|--------------------------------------------------------------------|------- 
-|-2-2-2-2-2-2-2-2--2-2-2-2-2-2-2-2-----------------------------------|------- 
-|-3-3-3-3-3-3-3-3--2-2-2-2-2-2-2-2--3-3-3-3-3-3-3-3--2-2-2-2-2-2-2-2-|------- 
-|-3-3-3-3-3-3-3-3--0-0-0-0-0-0-0-0--5-5-5-5-5-5-5-5--3-3-3-3-3-3-3-3-|------- 
-|-1-1-1-1-1-1-1-1----------------------------------------------------|------- 
   Take             my               hand                      take my         
 
-|-------------------------------------------------------------------|-------- 
-|-------------------------------------------------------------------|-------- 
-|------------------2-2-2-2-2-2-2-2--3-3-3-3-3-3-3-3-3-3-3-3-3-3-3-3-|-------- 
-|-3-3-3-3-3-3-3-3--3-3-3-3-3-3-3-3--2-2-2-2-2-2-2-2-2-2-2-2-2-2-2-2-|-------- 
-|-1-1-1-1-1-1-1-1--3-3-3-3-3-3-3-3--3-3-3-3-3-3-3-3-3-3-3-3-3-3-3-3-|-------- 
-|------------------1-1-1-1-1-1-1-1----------------------------------|-------- 
   Whole            life             too                        for            
 
-|--------------------------------------------------------------------|------- 
-|--------------------------------------------------------------------|------- 
-|------------------0-0-0-0-0-0-0-0--2-2-2-2-2-2-2-2------------------|------- 
-|-3-3-3-3-3-3-3-3--2-2-2-2-2-2-2-2--3-3-3-3-3-3-3-3--5-5-5-5-5-5-5-5-|------- 
-|-1-1-1-1-1-1-1-1--3-3-3-3-3-3-3-3--3-3-3-3-3-3-3-3--5-5-5-5-5-5-5-5-|------- 
-|-----------------------------------1-1-1-1-1-1-1-1--3-3-3-3-3-3-3-3-|------- 
   I                can't            help             falling  in              
 
-|-------------------------------------------------------------------|-------- 
-|-------------------------------------------------------------------|-------- 
-|-2-2-2-2-2-2-2-2-------------------2-2-2-2-2-2-2-2-2-2-2-2-2-2-2-2-|-------- 
-|-3-3-3-3-3-3-3-3--2-2-2-2-2-2-2-2--3-3-3-3-3-3-3-3-3-3-3-3-3-3-3-3-|-------- 
-|-3-3-3-3-3-3-3-3--3-3-3-3-3-3-3-3--3-3-3-3-3-3-3-3-3-3-3-3-3-3-3-3-|-------- 
-|-1-1-1-1-1-1-1-1-------------------1-1-1-1-1-1-1-1-1-1-1-1-1-1-1-1-|-------- 
   Love             with             you                         but           
 
-|------------------------------------------------------------------|--------- 
-|------------------------------------------------------------------|--------- 
-|----------------0-0-0-0-0-0-0-0--2-2-2-2-2-2-2-2------------------|--------- 
-|-3-3-3-3-3-3-3--2-2-2-2-2-2-2-2--3-3-3-3-3-3-3-3--5-5-5-5-5-5-5-5-|--------- 
-|-1-1-1-1-1-1-1--3-3-3-3-3-3-3-3--3-3-3-3-3-3-3-3--5-5-5-5-5-5-5-5-|--------- 
-|---------------------------------1-1-1-1-1-1-1-1--3-3-3-3-3-3-3-3-|--------- 
   I              can       not    help             falling  in                
 
-|------------------------------------------------------------------|--------- 
-|------------------------------------------------------------------|--------- 
-|-2-2-2-2-2-2-2-2-2-2-2-2-2-2-2-2--0-0-0-0-0-0-0-0-0-0-0-0-0-0-0-0-|--------- 
-|-3-3-3-3-3-3-3-3-3-3-3-3-3-3-3-3--2-2-2-2-2-2-2-2-2-2-2-2-2-2-2-2-|--------- 
-|-3-3-3-3-3-3-3-3-3-3-3-3-3-3-3-3--3-3-3-3-3-3-3-3-3-3-3-3-3-3-3-3-|--------- 
-|-1-1-1-1-1-1-1-1-1-1-1-1-1-1-1-1----------------------------------|--------- 
   Love                             with                                       
 
-|--------------------------------------------------------------1---||-------- 
-|--------------------------------------------------------------1---||-------- 
-|-2-2-2-2-2-2-2-2--3-3-3-3-3-3-3-3--2-2-2-2-2-2-2-2-2---2------2---||-------- 
-|-3-3-3-3-3-3-3-3--3-3-3-3-3-3-3-3--3-3-3-3-3-3-3-3-3---3------3---||-------- 
-|-3-3-3-3-3-3-3-3--1-1-1-1-1-1-1-1--3-3-3-3-3-3-3-3-3---3------3---||-------- 
-|-1-1-1-1-1-1-1-1-------------------1-1-1-1-1-1-1-1-1---1------1---||-------- 
   You                                                                    
 
_______________________________________________________ 
Contribuição: Henrique Fairbancks([email protected]) 

	  

Search Paypal
auto scroll beats size up size down change color hide chords drawings
tab show chords e-chords YouTube Clip e-chords hide all tabs e-chords go to top tab