Pearl Jam

home > Pearl Jam

I am mine (Ver. 2) Tab

Pearl Jam

Difficulty: ExpertExpert

by kcobain7

tuner correct add songbook print version text version save to e-mail
chordsukulelecavacokeyboardtabbassdrumsharmonicsflute Guitar Pro
chords

I am mine (Ver. 2)

  		Nota: El unico acorde raro es Fmaj7, pero ahi indico como hacerlo, este tema 
lo saque del videoclip, asi que puedo decir que esta correcto: 
No me gusto al version que vi, me dedique a hacer esta, si alguien saco el solo, por favor 
mandelo a [email protected] se lo voy a agradecer 
 
intro/riff: 
E|---0---0--0---0--0--0-----0---0--0---0--0--0--0-| 
B|---3---3--3---6--8--6-----5---5--5---6--5--1--3-| 
G|---2---2--2---5--7--5-----4---4--4---5--4--2--2-| 
D|---0---0--0---0--0--0-----0---0--0---0--0--0--0-| 
A|------------------------------------------------| 
E|------------------------------------------------| 
                                      
 
E|---0---0--0---0--0--0-----0---0--0--0--0--0--0---------------------| 
B|---3---3--3---6--8--6-----5---5--5--5--5--5--5---2----2-2-2-2-2-2--| 
G|---2---2--2---5--7--5-----4---4--4--4--4--4--4---2----2-2-2-2-2-2--| 
D|---0---0--0---0--0--0-----0---0--0--0--0--0--0---2----2-2-2-2-2-2--| 
A|-------------------------------------------------0----0-0-0-0-0-0--| 
E|-------------------------------------------------------------------|  
 
 
  D             Fmaj7      C           G			  Fmaj7 
The selfish they're all standin' in line			e|--0--| 
Faithing and hoping to buy themselves time			B|--1--| 
Me I figure as each breath goes by				G|--2--| 
  F    G      D							D|--3--| 
I only own my mind						A|--0--| 
								E|--x--| 
     D            Fmaj7         C           G 
The north is to south what the clock is to time 
There's east and there's west and there's everywhere life 
I know I was born and i know that I'll die 
  F       G         D	 
The in between is mine 
I am mine 
        G           Am        D 
And the feeling, it gets left behind 
All the innocence lost at one time 
Significant behind the eyes 
           C 
There's no need to hide... 
We're safe tonight 
 
  D             Fmaj7      C           G	 
The ocean is full cause everyone's crying 
The full moon is looking for friends at hightide 
The sorrow grows bigger when the sorrow's denied 
  F       G         D	 
I only know my mind  
I am mine 
 
        G           Am        D 
And the meaning, it gets left behind 
All the innocents lost at one time 
Significant behind the eyes 
           C 
There's no need to hide... 
We're safe tonight 
        G           Am        D 
And the feelings that get left behind 
All the innocence broken with lies 
Significance, beetween the lines 
We may need to hide 
        G           Am        D 
And the meanings that get left behind 
All the innocents lost at one time 
We're all different behind the eyes 
There's no need to hide 
 
========| 
Dani V. | 

	  

Full key step upFull key step up
Half key step upHalf key step up
Half key step downHalf key step down
Full key step downFull key step down
Search Paypal
auto scroll beats size up size down change color hide chords drawings
tab show chords e-chords YouTube Clip e-chords hide all tabs e-chords go to top tab