Pearl Jam

home > Pearl Jam

History Never Repeats Tab

Pearl Jam

Difficulty: nolevelnolevel

tuner correct add songbook print version text version save to e-mail
chordsukulelecavacokeyboardtabbassdrumsharmonicsflute Guitar Pro
chords

History Never Repeats

  		-|---------------------------------- 
-|---3---3---3---3---3---3---3---3-- 
-|-5---0---5---0---5---0---5---0---- 
-|---------------------------------- 
-|---------------------------------- 
-|---------------------------------- 
G1 
 
 
 
   (G)                             A 
-|---------------------------------------------------------------- 
-|---3---3---3---3---3---3---3\----2-2-2-2-2-2-2-2-2-2-2-2-2-2-2-2 
-|-5---0---5---0---5---0---5-------2-2-2-2-2-2-2-2-2-2-2-2-2-2-2-2 
-|---------------------------------2-2-2-2-2-2-2-2-2-2-2-2-2-2-2-2 
-|---------------------------------0-0-0-0-0-0-0-0-0-0-0-0-0-0-0-0 
-|---------------------------------------------------------------- 
G1 
 
-|---------------------------------5-5-5-5-5-5-5-5-5-5-5-5-5-5-5-5 
-|---------------------------------5-5-5-5-5-5-5-5-5-5-5-5-5-5-5-5 
-|---------------------------------6-6-6-6-6-6-6-6-6-6-6-6-6-6-6-6 
-|---------------------------------7-7-7-7-7-7-7-7-7-7-7-7-7-7-7-7 
-|---------------------------------7-7-7-7-7-7-7-7-7-7-7-7-7-7-7-7 
-|---------------------------------5-5-5-5-5-5-5-5-5-5-5-5-5-5-5-5 
G2 History....                  ...Sleep 
 
 
 
 
   G                               A 
-|---------------------------------------------------------------- 
-|---3---3---3---3---3---3---3\----2-2-2-2-2-2-2-2-2-2-2-2-2-2-2-2 
-|-5---0---5---0---5---0---5-------2-2-2-2-2-2-2-2-2-2-2-2-2-2-2-2 
-|---------------------------------2-2-2-2-2-2-2-2-2-2-2-2-2-2-2-2 
-|---------------------------------0-0-0-0-0-0-0-0-0-0-0-0-0-0-0-0 
-|---------------------------------------------------------------- 
G1 
 
-|---------------------------------------------------------------- 
-|---------------------------------------------------------------- 
-|---------------------------------------------------------------- 
-|-5-5-5-5-5-5-5-5-5-5-5-5-5-5-5---7-7-7-7-7-7-7-7-7-7-7-7-7-7-7-7 
-|-5-5-5-5-5-5-5-5-5-5-5-5-5-5-5---7-7-7-7-7-7-7-7-7-7-7-7-7-7-7-7 
-|-3-3-3-3-3-3-3-3-3-3-3-3-3-3-3---5-5-5-5-5-5-5-5-5-5-5-5-5-5-5-5 
G2 Don't Say The Words...       ...Forget 
 
 
 
 
 
-|------------------------------------------------------------------- 
-|------------------------------------------------------------------- 
-|------------------------------------------------------------------- 
-|------------------------------------------------------------------- 
-|---5-----4---3----------------------5---4-----3-------------------- 
-|---------------5----5-0----0--3---3--------------5----5-0--0---3--- 
G1 There Was A Girl I Used To Know  She Dealt My Love A Savage Blow 
 
-|------------------------------------------------------------------- 
-|-----------------10-----5------8-------------------10-----5------8- 
-|------------------9-----4------7--------------------9-----4------7- 
-|------------------------------------------------------------------- 
-|------------------------------------------------------------------- 
-|------------------------------------------------------------------- 
G2   There Was A Girl I Used To Know  She Dealt My Love A Savage Blow 
 
 
 
 
-|---------------------------------------------------------------------------- 
-|---------------------------------------------------------------------------- 
-|-------------------------------------------------------------5-5-5-5-5-5-5-5 
-|---------------------------------------------3-3-3-3-5-5-5-5-5-5-5-5-5-5-5-5 
-|---5-4---3---------------------------5---4-3-3-3-3-3-5-5-5-5-3-3-3-3-3-3-3-3 
-|------------5------5---0-----0--3--3---------1-1-1-1-3-3-3-3---------------- 
G1   I Was So Young, Too Blind To See  But Anyway That's History 
 
-|---------------------------------------------------------------------------- 
-|-----------------10------5--------8----------------------------------------- 
-|------------------9------4--------7--------------------------5-5-5-5-5-5-5-5 
-|---------------------------------------------3-3-3-3-5-5-5-5-5-5-5-5-5-5-5-5 
-|---------------------------------------------3-3-3-3-5-5-5-5-3-3-3-3-3-3-3-3 
-|---------------------------------------------1-1-1-1-3-3-3-3---------------- 
G2   I Was So Young, Too Blind To See  But Anyway That's History 
 
 
 
 
 
-|---------------------------------------------------------------- 
-|---3---3---3---3---3---3---3\----2-2-2-2-2-2-2-2-2-2-2-2-2-2-2-2 
-|-5---0---5---0---5---0---5-------2-2-2-2-2-2-2-2-2-2-2-2-2-2-2-2 
-|---------------------------------2-2-2-2-2-2-2-2-2-2-2-2-2-2-2-2 
-|---------------------------------0-0-0-0-0-0-0-0-0-0-0-0-0-0-0-0 
-|---------------------------------------------------------------- 
G1 
 
-|---------------------------------------------------------------- 
-|---------------------------------------------------------------- 
-|---------------------------------------------------------------- 
-|-5-5-5-5-5-5-5-5-5-5-5-5-5-5-5---7-7-7-7-7-7-7-7-7-7-7-7-7-7-7-7 
-|-5-5-5-5-5-5-5-5-5-5-5-5-5-5-5---7-7-7-7-7-7-7-7-7-7-7-7-7-7-7-7 
-|-3-3-3-3-3-3-3-3-3-3-3-3-3-3-3---5-5-5-5-5-5-5-5-5-5-5-5-5-5-5-5 
G2 History....                  ...Sleep 
 
 
 
 
 
 
-|---------------------------------------------------------------- 
-|---3---3---3---3---3---3---3\----2-2-2-2-2-2-2-2-2-2-2-2-2-2-2-2 
-|-5---0---5---0---5---0---5-------2-2-2-2-2-2-2-2-2-2-2-2-2-2-2-2 
-|---------------------------------2-2-2-2-2-2-2-2-2-2-2-2-2-2-2-2 
-|---------------------------------0-0-0-0-0-0-0-0-0-0-0-0-0-0-0-0 
-|---------------------------------------------------------------- 
G1 
 
-|---------------------------------------------------------------- 
-|---------------------------------------------------------------- 
-|---------------------------------------------------------------- 
-|-5-5-5-5-5-5-5-5-5-5-5-5-5-5-5---7-7-7-7-7-7-7-7-7-7-7-7-7-7-7-7 
-|-5-5-5-5-5-5-5-5-5-5-5-5-5-5-5---7-7-7-7-7-7-7-7-7-7-7-7-7-7-7-7 
-|-3-3-3-3-3-3-3-3-3-3-3-3-3-3-3---5-5-5-5-5-5-5-5-5-5-5-5-5-5-5-5 
G2 And There's A Light...       ...Heart 
 
 
 
 
-|------------------------------------------------------------------------ 
-|------------------------------------------------------------------------ 
-|------------------------------------------------------------------------ 
-|------------------------------------------------------------------------ 
-|---5---4---3-----------------------------5-4-----3---------------------- 
-|-------------5--5----0----0---3-----3---------------5--5--0-----0---3--- 
G1   You Say I Al-ways Play The Fool  Well I Can't Go On If Thats The Rule 
 
-|------------------------------------------------------------------------ 
-|---------------10------5-------8---------------------10-----5---------8- 
-|----------------9------4-------7----------------------9-----4---------7- 
-|------------------------------------------------------------------------ 
-|------------------------------------------------------------------------ 
-|------------------------------------------------------------------------ 
G2   You Say I Al-ways Play The Fool  Well I Can't Go On If Thats The Rule 
 
 
 
 
-|---------------------------------------------------------------------------- 
-|---------------------------------------------------------------------------- 
-|-------------------------------------------------------------5-5-5-5-5-5-5-5 
-|---------------------------------------------3-3-3-3-5-5-5-5-5-5-5-5-5-5-5-5 
-|---5-4----3-------------------------5-4----3-3-3-3-3-5-5-5-5-3-3-3-3-3-3-3-3 
-|------------5------5---0-----0--3-3----------1-1-1-1-3-3-3-3---------------- 
G1  Bet-ter To Jump Then Hes-i-tate  I Need A Change And I Can't Wait 
 
-|---------------------------------------------------------------------------- 
-|---------------10--------5-------8------------------------------------------ 
-|----------------9--------4-------7---------------------------5-5-5-5-5-5-5-5 
-|---------------------------------------------3-3-3-3-5-5-5-5-5-5-5-5-5-5-5-5 
-|---------------------------------------------3-3-3-3-5-5-5-5-3-3-3-3-3-3-3-3 
-|---------------------------------------------1-1-1-1-3-3-3-3---------------- 
G2  Bet-ter To Jump Then Hes-i-tate  I Need A Change And I Can't Wait 
 
 
 
 
-|---------------------------------------------------------------- 
-|---3---3---3---3---3---3---3\----2-2-2-2-2-2-2-2-2-2-2-2-2-2-2-2 
-|-5---0---5---0---5---0---5-------2-2-2-2-2-2-2-2-2-2-2-2-2-2-2-2 
-|---------------------------------2-2-2-2-2-2-2-2-2-2-2-2-2-2-2-2 
-|---------------------------------0-0-0-0-0-0-0-0-0-0-0-0-0-0-0-0 
-|---------------------------------------------------------------- 
G1 
 
-|---------------------------------5-5-5-5-5-5-5-5-5-5-5-5-5-5-5-5 
-|---------------------------------5-5-5-5-5-5-5-5-5-5-5-5-5-5-5-5 
-|---------------------------------6-6-6-6-6-6-6-6-6-6-6-6-6-6-6-6 
-|-5-5-5-5-5-5-5-5-5-5-5-5-5-5-5---7-7-7-7-7-7-7-7-7-7-7-7-7-7-7-7 
-|-5-5-5-5-5-5-5-5-5-5-5-5-5-5-5---7-7-7-7-7-7-7-7-7-7-7-7-7-7-7-7 
-|-3-3-3-3-3-3-3-3-3-3-3-3-3-3-3---5-5-5-5-5-5-5-5-5-5-5-5-5-5-5-5 
G2 History....                  ...Sleep 
 
 
 
 
 
-|---------------------------------------------------------------- 
-|---3---3---3---3---3---3---3\----2-2-2-2-2-2-2-2-2-2-2-2-2-2-2-2 
-|-5---0---5---0---5---0---5-------2-2-2-2-2-2-2-2-2-2-2-2-2-2-2-2 
-|---------------------------------2-2-2-2-2-2-2-2-2-2-2-2-2-2-2-2 
-|---------------------------------0-0-0-0-0-0-0-0-0-0-0-0-0-0-0-0 
-|---------------------------------------------------------------- 
G1 
 
-|---------------------------------------------------------------- 
-|---------------------------------------------------------------- 
-|---------------------------------------------------------------- 
-|-5-5-5-5-5-5-5-5-5-5-5-5-5-5-5---7-7-7-7-7-7-7-7-7-7-7-7-7-7-7-7 
-|-5-5-5-5-5-5-5-5-5-5-5-5-5-5-5---7-7-7-7-7-7-7-7-7-7-7-7-7-7-7-7 
-|-3-3-3-3-3-3-3-3-3-3-3-3-3-3-3---5-5-5-5-5-5-5-5-5-5-5-5-5-5-5-5 
G2 And There's A Light...       ...Heart 
 
 
 
 
 
   D            E            F      C        G      A 
-|-2-2-2-2-2-2--4-4-4-4-4-4--5-5-5/12-12-12--7-7-7/-9--9--9 
-|-3-3-3-3-3-3--5-5-5-5-5-5--6-6-6/13-13-13--8-8-8/10-10-10 
-|-2-2-2-2-2-2--4-4-4-4-4-4--5-5-5/12-12-12--7-7-7/-9--9--9 
-|--------------------------------------------------------- 
-|--------------------------------------------------------- 
-|--------------------------------------------------------- 
G1 
 
   D            E            F        C        G      A 
-|----------------------------------------------------------- 
-|----------------------------------------------------------- 
-|-7-7-7-7-7-7--9-9-9-9-9-9-10-10-10------------------------- 
-|-7-7-7-7-7-7--9-9-9-9-9-9-10-10-10-10-10-10--5-5-5--7--7--7 
-|-5-5-5-5-5-5--7-7-7-7-7-7--8--8--8-10-10-10--5-5-5--7--7--7 
-|------------------------------------8--8--8--3-3-3--5--5--5 
G2 
 
 
 
 
   D            E            F      C        G      A 
-|-2-2-2-2-2-2--4-4-4-4-4-4--5-5-5/12-12-12--7-7-7/-9--9--9 
-|-3-3-3-3-3-3--5-5-5-5-5-5--6-6-6/13-13-13--8-8-8/10-10-10 
-|-2-2-2-2-2-2--4-4-4-4-4-4--5-5-5/12-12-12--7-7-7/-9--9--9 
-|--------------------------------------------------------- 
-|--------------------------------------------------------- 
-|--------------------------------------------------------- 
G1 
 
   D            E            F        C        G      A 
-|----------------------------------------------------------- 
-|----------------------------------------------------------- 
-|-7-7-7-7-7-7--9-9-9-9-9-9-10-10-10------------------------- 
-|-7-7-7-7-7-7--9-9-9-9-9-9-10-10-10-10-10-10--5-5-5--7--7--7 
-|-5-5-5-5-5-5--7-7-7-7-7-7--8--8--8-10-10-10--5-5-5--7--7--7 
-|------------------------------------8--8--8--3-3-3--5--5--5 
G2 
 
 
 
 
 
-|----3--------------------------------- 
-|----3--------------------------------- 
-|----4--------------------------------- 
-|----5--------------------------------- 
-|----5--------------------------------- 
-|----3--------------------------------- 
G1&G2 History Never Repeats, History Never... 
 
 
 
 
 
-|------------------------------------------------------------------- 
-|------------------------------------------------------------------- 
-|------------------------------------------------------------------- 
-|------------------------------------------------------------------- 
-|---5----4--3---------------------------5-4---3--------------------- 
-|---------------5-----5----0---0--3---3---------5---5----0-----0--3- 
G1&2 Deep In The Night It's All So Clear I Lie Awake With Great Ideas 
 
 
 
-|---------------------------------------------------------------------------- 
-|---------------------------------------------------------------------------- 
-|-------------------------------------------------------------5-5-5-5-5-5-5-5 
-|---------------------------------------------3-3-3-3-5-5-5-5-5-5-5-5-5-5-5-5 
-|---5--4----3----------------------5-4-----3--3-3-3-3-5-5-5-5-3-3-3-3-3-3-3-3 
-|-------------5---5--0--0-----3--3------------1-1-1-1-3-3-3-3---------------- 
G1&2 Lurking About In No Man's Land I Think At Last I Understand 
 
 
 
 
 
-|---------------------------------------------------------------- 
-|---3---3---3---3---3---3---3\----2-2-2-2-2-2-2-2-2-2-2-2-2-2-2-2 
-|-5---0---5---0---5---0---5-------2-2-2-2-2-2-2-2-2-2-2-2-2-2-2-2 
-|---------------------------------2-2-2-2-2-2-2-2-2-2-2-2-2-2-2-2 
-|---------------------------------0-0-0-0-0-0-0-0-0-0-0-0-0-0-0-0 
-|---------------------------------------------------------------- 
G1 
 
-|---------------------------------5-5-5-5-5-5-5-5-5-5-5-5-5-5-5-5 
-|---------------------------------5-5-5-5-5-5-5-5-5-5-5-5-5-5-5-5 
-|---------------------------------6-6-6-6-6-6-6-6-6-6-6-6-6-6-6-6 
-|-5-5-5-5-5-5-5-5-5-5-5-5-5-5-5---7-7-7-7-7-7-7-7-7-7-7-7-7-7-7-7 
-|-5-5-5-5-5-5-5-5-5-5-5-5-5-5-5---7-7-7-7-7-7-7-7-7-7-7-7-7-7-7-7 
-|-3-3-3-3-3-3-3-3-3-3-3-3-3-3-3---5-5-5-5-5-5-5-5-5-5-5-5-5-5-5-5 
G2 History....                  ...Sleep 
 
 
 
 
 
-|---------------------------------------------------------------- 
-|---3---3---3---3---3---3---3\----2-2-2-2-2-2-2-2-2-2-2-2-2-2-2-2 
-|-5---0---5---0---5---0---5-------2-2-2-2-2-2-2-2-2-2-2-2-2-2-2-2 
-|---------------------------------2-2-2-2-2-2-2-2-2-2-2-2-2-2-2-2 
-|---------------------------------0-0-0-0-0-0-0-0-0-0-0-0-0-0-0-0 
-|---------------------------------------------------------------- 
G1 
 
-|---------------------------------------------------------------- 
-|---------------------------------------------------------------- 
-|---------------------------------------------------------------- 
-|-5-5-5-5-5-5-5-5-5-5-5-5-5-5-5---7-7-7-7-7-7-7-7-7-7-7-7-7-7-7-7 
-|-5-5-5-5-5-5-5-5-5-5-5-5-5-5-5---7-7-7-7-7-7-7-7-7-7-7-7-7-7-7-7 
-|-3-3-3-3-3-3-3-3-3-3-3-3-3-3-3---5-5-5-5-5-5-5-5-5-5-5-5-5-5-5-5 
G2 And There's A Light...       ...Heart 
 
 
 
 
 
   D            E            F      C        G      A 
-|-2-2-2-2-2-2--4-4-4-4-4-4--5-5-5/12-12-12--7-7-7/-9--9--9 
-|-3-3-3-3-3-3--5-5-5-5-5-5--6-6-6/13-13-13--8-8-8/10-10-10 
-|-2-2-2-2-2-2--4-4-4-4-4-4--5-5-5/12-12-12--7-7-7/-9--9--9 
-|--------------------------------------------------------- 
-|--------------------------------------------------------- 
-|--------------------------------------------------------- 
G1 
 
   D            E            F        C        G      A 
-|----------------------------------------------------------- 
-|----------------------------------------------------------- 
-|-7-7-7-7-7-7--9-9-9-9-9-9-10-10-10------------------------- 
-|-7-7-7-7-7-7--9-9-9-9-9-9-10-10-10-10-10-10--5-5-5--7--7--7 
-|-5-5-5-5-5-5--7-7-7-7-7-7--8--8--8-10-10-10--5-5-5--7--7--7 
-|------------------------------------8--8--8--3-3-3--5--5--5 
G2 
 
 
 
 
   D            E            F      C        G      A 
-|-2-2-2-2-2-2--4-4-4-4-4-4--5-5-5/12-12-12--7-7-7/-9--9--9 
-|-3-3-3-3-3-3--5-5-5-5-5-5--6-6-6/13-13-13--8-8-8/10-10-10 
-|-2-2-2-2-2-2--4-4-4-4-4-4--5-5-5/12-12-12--7-7-7/-9--9--9 
-|--------------------------------------------------------- 
-|--------------------------------------------------------- 
-|--------------------------------------------------------- 
G1 
 
   D            E            F        C        G      A 
-|----------------------------------------------------------- 
-|----------------------------------------------------------- 
-|-7-7-7-7-7-7--9-9-9-9-9-9-10-10-10------------------------- 
-|-7-7-7-7-7-7--9-9-9-9-9-9-10-10-10-10-10-10--5-5-5--7--7--7 
-|-5-5-5-5-5-5--7-7-7-7-7-7--8--8--8-10-10-10--5-5-5--7--7--7 
-|------------------------------------8--8--8--3-3-3--5--5--5 
G2 
 
 
 
 
   D            E            F      C        G      A 
-|-2-2-2-2-2-2--4-4-4-4-4-4--5-5-5/12-12-12--7-7-7/-9--9--9 
-|-3-3-3-3-3-3--5-5-5-5-5-5--6-6-6/13-13-13--8-8-8/10-10-10 
-|-2-2-2-2-2-2--4-4-4-4-4-4--5-5-5/12-12-12--7-7-7/-9--9--9 
-|--------------------------------------------------------- 
-|--------------------------------------------------------- 
-|--------------------------------------------------------- 
G1 
 
   D            E            F        C        G      A 
-|----------------------------------------------------------- 
-|----------------------------------------------------------- 
-|-7-7-7-7-7-7--9-9-9-9-9-9-10-10-10------------------------- 
-|-7-7-7-7-7-7--9-9-9-9-9-9-10-10-10-10-10-10--5-5-5--7--7--7 
-|-5-5-5-5-5-5--7-7-7-7-7-7--8--8--8-10-10-10--5-5-5--7--7--7 
-|------------------------------------8--8--8--3-3-3--5--5--5 
G2 
 
 
 
 
   D            E            F      C        Ab        Bb           C 
-|-2-2-2-2-2-2--4-4-4-4-4-4--5-5-5/12-12-12--8-8-8-8--10-10-10-10--12 
-|-3-3-3-3-3-3--5-5-5-5-5-5--6-6-6/13-13-13--9-9-9-9--11-11-11-11--13 
-|-2-2-2-2-2-2--4-4-4-4-4-4--5-5-5/12-12-12--8-8-8-8--10-10-10-10--12 
-|------------------------------------------------------------------- 
-|------------------------------------------------------------------- 
-|------------------------------------------------------------------- 
G1 
 
   D            E            F        C       Ab       Bb         C 
-|----------------------------------------------------------------- 
-|----------------------------------------------------------------- 
-|-7-7-7-7-7-7--9-9-9-9-9-9-10-10-10------------------------------- 
-|-7-7-7-7-7-7--9-9-9-9-9-9-10-10-10-10-10-10--6-6-6-6--8-8-8-8--10 
-|-5-5-5-5-5-5--7-7-7-7-7-7--8--8--8-10-10-10--6-6-6-6--8-8-8-8--10 
-|------------------------------------8--8--8--4-4-4-4--6-6-6-6---8 
G2 
 
_______________________________________________________ 
Contribuição: Henrique Fairbancks([email protected]) 

	  

Search Paypal
auto scroll beats size up size down change color hide chords drawings
tab show chords e-chords YouTube Clip e-chords hide all tabs e-chords go to top tab