Pearl Jam

home > Pearl Jam

Fuck me in the brain Tab

Pearl Jam

Difficulty: BeginnerBeginner

tuner correct add songbook print version text version save to e-mail
chordsukulelecavacokeyboardtabbassdrumsharmonicsflute Guitar Pro
chords

Fuck me in the brain

  		 
-|--------------------|------------------------------------------------------- 
-|--x--8--8-----8--8--|------------------------------------------------------- 
-|--x--7--7-----7--7--|------------------------------------------------------- 
-|--x--6--6-----6--6--|------------------------------------------------------- 
-|--x--7-----7--7-----|------------------------------------------------------- 
-|-----------0--------|------------------------------------------------------- 
 Whole Song Stone                                                              
 
-|-----------------|---------------------------------------------------------- 
-|-----------------|---------------------------------------------------------- 
-|--14b16--r14-----|---------------------------------------------------------- 
-|-----------------|---------------------------------------------------------- 
-|-----------------|---------------------------------------------------------- 
-|-----------------|---------------------------------------------------------- 
 Mike's Intro Fill                                                             
 
 
_______________________________________________________ 
Contribuição: Henrique Fairbancks([email protected])