Pearl Jam

home > Pearl Jam

Do the evolution (solo) Tab

Pearl Jam

Difficulty: AdvancedAdvanced

tuner correct add songbook print version text version save to e-mail
chordsukulelecavacokeyboardtabbassdrumsharmonicsflute Guitar Pro
chords

Do the evolution (solo)

  		 
Solo: 
Guitarra 1: 
-|-----------------------------------------------------------------|---------- 
-|-----------------------------------------------------------------|---------- 
-|-10vvvvvvv-12b14vvvvvvv-14r12--p10h12p10h12b14r12p10-12p10----10-|---------- 
-|-----------------------------------------------------------12----|---------- 
-|-----------------------------------------------------------------|---------- 
-|-----------------------------------------------------------------|---------- 
                          grad.release                                         
 
-|--------------------------13-----|----------------|--------------------|---- 
-|-13b15vvv-15--13h15p13p10----13b-|----------------|--------------------|---- 
-|---------------------------------|-7b--10-7---5-7-|-----10-7---10-7vvv-|---- 
-|---------------------------------|-7b--10-7---5-7-|-10b-10-7-7---------|---- 
-|---------------------------------|----------8-----|--------------------|---- 
-|---------------------------------|----------------|--------------------|---- 
                              quarter bends   
 
Guitarra 2: 
-|--------------------|-----------------|-----------------|-----------------|- 
-|--------------------|-----------------|-----------------|-----------------|- 
-|-x--0------0------8-|---0----0------8-|---0----0------8-|---0----0------8-|- 
-|-x--0------0------8-|---0----0------8-|---0----0------8-|---0----0------8-|- 
-|----x---8--x-8-10---|---x-8--x-8-10---|---x-8--x-8-10---|---x-8--x-8-10---|- 
-|---10-----10--------|-/10---10--------|-/10---10--------|-/10---10--------|-    
 
-|--------------------|-----------------|-----------------|-----------------|- 
-|--------------------|-----------------|-----------------|-----------------|- 
-|-x--0------0------8-|---0----0------8-|---0----0------8-|---0----0------8-|- 
-|-x--0------0------8-|---0----0------8-|---0----0------8-|---0----0------8-|- 
-|----x---8--x-8-10---|---x-8--x-8-10---|---x-8--x-8-10---|---x-8--x-8-10---|- 
-|---10-----10--------|-/10---10--------|-/10---10--------|-/10---10--------|- 
 
_______________________________________________________ 
Contribuição: Taino Vieira([email protected])