Pearl Jam

home > Pearl Jam

Black (unplugged) Tab

Pearl Jam

Difficulty: BeginnerBeginner

tuner correct add songbook print version text version save to e-mail
chordsukulelecavacokeyboardtabbassdrumsharmonicsflute Guitar Pro
chords

Black (unplugged)

  		 
Introdução: 
 
       E7              A4 
e|-x-x-x-x-x-x-x-x--x-x-x-x-x-x-x-x-x-x--| 
B|-9-9-9-9-9-9-9-9-10-10-10-10-10-10-10--| 
G|-x-x-x-x-x-x-x-x?-9-9-9-9-9-9-9-9-9-9--|3x 
D|-9-9-9-9-9-9-9-9--x-x-x-x-x-x-x-x-x-x--| 
A|-7-7-7-7-7-7-7-7--7-7-7-7-7-7-7-7-7-7--| 
E|-x-x-x-x-x-x-x-x--x-x-x-x-x-x-x-x-x-x--| 
 
         E7              E7 
e|-x-x-x-x-x-x-x-x--x-x-x-x-x-x-x-x-x-x--| 
B|-9-9-9-9-9-9-9-9--9-9-9-9-9-9-9-9-9-9--| 
G|-x-x-x-x-x-x-x-x?-x-x-x-x-x-x-x-x-x-x--|1x 
D|-9-9-9-9-9-9-9-9--9-9-9-9-9-9-9-9-9-9--| 
A|-7-7-7-7-7-7-7-7--7-7-7-7-7-7-7-7-7-7--| 
E|-x-x-x-x-x-x-x-x--x-x-x-x-x-x-x-x-x-x--| 
 
 
Introdução 
 
Hey...oooh 
 
  E7               A4 
Sheets of empty canvas,  
  E7                     A4 
untouched sheets of clay 
 E7                   A4 
Were laid spread out before me 
  E7        E7 
As her body once did 
 E7         A4           E7               A4 
All five horizons revolved around her soul 
 A4                              e|-12-12-12-10-10- 
As the earth to the sun 
 E7          A4         
Now the air I tasted and breathed  
E7         E7 
has taken a turn 
 
Pré-refrão 
 
 C                              Em 
Ooh, and all I taught her was everything 
 
e|----------------------------------- 
B|----------------------------------- 
G|----------------------------------- 
D|--0h2-2-0-0-0h2-2-0---------------- 
A|----------------------------------- 
E|----------------------------------- 
 
 C                               Em 
Ooh, I know she gave me all that she wore 
 
e|----------------------------------- 
B|----------------------------------- 
G|----------------------------------- 
D|--0-2-3-5-3-2-3-2------------------ 
A|----------------------------------- 
E|----------------------------------- 
 
           D   
And now my bitter hands 
          C 
Chafe beneath the clouds 
 
 
e|--7-8-10-8-7-8-7---- 
B|-------------------- 
G|-------------------- 
D|-------------------- 
A|-------------------- 
E|-------------------- 
 
            Em 
Of what was everything? 
 
 
e|--7-8-7-7-5-5-5-7-5-5-3-3-- 
B|--------------------------- 
G|--------------------------- 
D|--------------------------- 
A|--------------------------- 
E|--------------------------- 
 
         D                     C 
Oh, the pictures have all been washed in black, 
 
 
e|--0-2-3-2-0-2-0-- 
B|----------------- 
G|----------------- 
D|----------------- 
A|----------------- 
E|----------------- 
 
              Em 
Tattooed everything... 
 
 
 
E7           A4    
I take a walk outside 
E7               A4 
I'm surrounded by some kids at play 
                e|-12-12-12-12-12-12-11-9-                    
                B|-12-12-12-12-12--------- 
 
E7              A4 
I can feel their laughter 
E7         E7 
So why do I sear 
     e|-12-12-12-12-10-9-8-| 2x 
     B|--------------------| 
 
 
 C                                     Em 
Oh, and twisted thoughts that spin round my head 
 
e|----------------------------------- 
B|----------------------------------- 
G|----------------------------------- 
D|--0h2-2-0-0-0h2-2-0---------------- 
A|----------------------------------- 
E|-----------------------------------I'm spinning, oh, I'm spinning 
 
C                      Em 
How quick the sun can, drop away 
 
e|----------------------------------- 
B|----------------------------------- 
G|----------------------------------- 
D|--0-2-3-5-3-2-3-2------------------ 
A|----------------------------------- 
E|----------------------------------- 
 
          D 
And now my bitter hands 
      C 
Cradle broken glass 
 
e|--7-8-10-8-7-8-7---- 
B|-------------------- 
G|-------------------- 
D|-------------------- 
A|-------------------- 
E|-------------------- 
 
                 Em 
Of what was everything? 
 
e|--7-8-7-7-5-5-5-7-5-5-3-3-- 
B|--------------------------- 
G|--------------------------- 
D|--------------------------- 
A|--------------------------- 
E|--------------------------- 
 
          D                    C 
All the pictures have all been washed in black, 
 
e|--7-8-10-8-7-8-7---- 
B|-------------------- 
G|-------------------- 
D|-------------------- 
A|-------------------- 
E|-------------------- 
 
               Em 
tattooed everything... 
 
e|--7-8-7-7-5-5-5-7-5-5-3-3-- 
B|--------------------------- 
G|--------------------------- 
D|--------------------------- 
A|--------------------------- 
E|--------------------------- 
 
        D                        C 
All the love gone bad turned my world to black 
 
e|--3-5-3-3-5-5-5-7-5-5-3-3- 
B|--------------------------- 
G|--------------------------- 
D|--------------------------- 
Á|--------------------------- 
E|--------------------------- 
 
          D                 C 
Tattooed all I see, all that I am, 
 
e|--7-8-10-8-7-8-7---- 
B|-------------------- 
G|-------------------- 3x 
D|-------------------- 
A|-------------------- 
E|-------------------- 
 
e|--0-2-3-2-0-2-0-0-0-0-0-0------------------------- 
B|--------------------------3-3-3-3-3-3-1-1-1-1-1-1- 
G|-------------------------------------------------- 
D|-------------------------------------------------- 
A|-------------------------------------------------- 
E|-------------------------------------------------- 
 
              Em             D     C     Em 
All that I'll be...yeah... 
D                 C         
Uh huh...uh huh...ooh... 
 
 
 
Em 
I know someday you'll have a beautiful life 
D 
I know you'll be a star 
C                       Em 
In somebody else's sky, but why 
     D           C 
Why, why can't it be 
                Em           D          C 
Why can't it be ohohohohohohohohohohoho mine...  
 
 
e|--7-8-10-8-7-8-7---- 
B|-------------------- repetir varias vezes 
G|-------------------- 
D|-------------------- 
A|-------------------- 
E|-------------------- 
 
Continua a base 
 
Uh uhuhuhuh no ye ye ye ye no uhuhuh 
 
Hãn hãn han ahan ye ye ye ye han han 
 
Faz esse solo na parte onde ele começa a cantar o We if long togheter! 
 
e|--7-8-10-8-7-8-7-7-7-7-8-10-8-7-8-7-7-7-7--7-7-9-7-7-9-7-7-9-7-5- 
B|----------------------------------------------------------------- 
G|----------------------------------------------------------------- 
D|----------------------------------------------------------------- 
A|----------------------------------------------------------------- 
E|----------------------------------------------------------------- 
 
 
e|--5-5-5-7-5-5-7-5-5-7-5-3-3-3-3-3-3-3-3-0-2-3-2-0-2-0------------ 
B|----------------------------------------------------------------- 
G|----------------------------------------------------------------- 
D|----------------------------------------------------------------- 
A|----------------------------------------------------------------- 
E|----------------------------------------------------------------- 
 
 
 
 We,we if long, we if long togheter togheter uh uh 
 
 We, we if long, we if long  togheter oh ye ye?  
 
 
_______________________________________________________ 
Contribuição: Thiago Andrade Cavalcante([email protected]) 

	  

Full key step upFull key step up
Half key step upHalf key step up
Half key step downHalf key step down
Full key step downFull key step down
Search Paypal
auto scroll beats size up size down change color hide chords drawings
tab show chords e-chords YouTube Clip e-chords hide all tabs e-chords go to top tab