Paulo Cesar Pinheiro

Evangelho

Paulo Cesar Pinheiro

tabs

by  TERCMORAES

save to print version add songbook text version e-mail correct tuner
chordsukulelecavacokeyboardtabbassdrumsharmonicaflute Guitar Pro
close

there isn't a video lesson for this song

chords

Evangelho

	  		|ntro 2x: 

 
E|-------2--3-3-2-----------------------2---------------2------------ 
B|-----3----3-3-3--3------------------3---3-----------3---3---------- 
G|---2---------------2--------------2-------2-------1-------1-------- 
D|-0-------------------0----------------------0---0------------------ 
A|-----------------------4--2-----2-------------2-------------0------ 
E|------------------------------0------------------------------------ 
 

Estrofe: 

 
E|--2------2-----2----|--5-----5-----5----|--4-----4-----4----| 
B|----3------3-----3--|----3-----3-----3--|----3-----3-----3--| 
G|------2------2------|------2-----2------|------2------------| 
D|--0-----------------|--0----------------|--0----------------| 
A|--------------------|-------------------|-------------------| 
E|--------------------|-------------------|-------------------| 
 

 
E|--3-----3-----3----|--1-----1-----1----|--4-----4-----4---- 
B|----4-----4-----4--|----1-----1-----1--|----3-----3-----3-- 
G|------2-----2------|------2-----2------|------2-----2------ 
D|--0----------------|--0----------------|--0---------------- 
A|-------------------|-------------------|------------------- 
E|-------------------|-------------------|------------------- 
 

 
E|--3------3-----3----- 
B|----3------3------3-- 
G|------2------2------- 
D|--0------------------ 
A|--------------------- 
E|--------------------- 
 

Eta mundo que a nada se destina 
Se maior se faz mais se arruína 
Se mais quer servir mais nos domina 
Se mais vidas dá são mais os danos 
Se mais deuses há mais são profanos 
Estes pobres de nós seres humanos 

Eta vida essa vida de infelizes 
Quanto mais coração mais cicatrizes 
No amor é que a dor cria raízes 
De dentro do bem é que o mal trama 
Da felicidade cresce o drama 
Dessas tristes de nós vidas humanas 

Eta tempo que em pouco nos devora 
O pavio da vela apagará 
Quanto mais se partir tempos afora 
Mais nos tempos de agora se estará 
E mais tarde quando o tempo melhora 
A nossa mocidade onde andará? 

Eta morte que acaba tempo e vida 
O mundo não conseguiu saída 
É o fim mas pode ser o começo 
Quem tenta fugir faz sempre o avesso 
E quanto mais vidas se cultiva 
Mais a morte alimenta a roda viva 
		  

See also:

tabs Tom Jobim - Wave tabs Tom Jobim - Eu sei que vou te amar tabs Wilson Paim - Ainda Existe um Lugar tabs Waldir Azevedo - Brasileirinho (ver. 2) tabs Secos e Molhados - Sangue Latino tabs Marisa Monte - Ainda Lembro
e-chords

Other versions:

tabs Paulo Cesar Pinheiro - Evangelho
auto scroll beats size up size down change color hide chords drawings
tab show chords e-chords YouTube Clip e-chords hide all tabs e-chords go to top tab

share