Paul McCartney

home > Paul McCartney

Promise too You Girl Solo Tab

Paul McCartney

Difficulty: nolevelnolevel

by ajguitar93

tuner correct add songbook print version text version save to e-mail
chordsukulelecavacokeyboardtabbassdrumsharmonicsflute Guitar Pro
chords

Promise too You Girl Solo

  		 
 
 
 
 
E||-------------------------------------------------------|- 
B||-15b(17)15-13----------------15b(17)15---13------------|- 
G||---------------14-14-14~~-------------------14-14-14~--|- 
D||------------------14-14~~----------------------14-14~--|- 
A||-------------------------------------------------------|- 
E||-------------------------------------------------------|- 
 
 
 
E||--------------------------------------------------------|- 
B||-15b(17)15r-13------------------------------------------|- 
G||---------------14b(16)14r----14-11b(12)11r-10--14b-14---|- 
D||--------------------------14----------------------------|- 
A||--------------------------------------------------------|- 
E||--------------------------------------------------------|- 
 
 
 
E||----------------------------------------|- 
B||-15b(17)15--13--------------------------|- 
G||---------------14-14-14~~---------------|- 
D||------------------14-14~~---------------|- 
A||----------------------------------------|- 
E||----------------------------------------|- 

	  

Search Paypal
auto scroll beats size up size down change color hide chords drawings
tab show chords e-chords YouTube Clip e-chords hide all tabs e-chords go to top tab