Paul Clark

Abide

Paul Clark

tabs nolevel nolevel

by  AMAN_CLAUDINO

save to print version add songbook text version e-mail correct tuner
chordsukulelecavacokeyboardtabbassdrumsharmonicaflute Guitar Pro
close

there isn't a video lesson for this song

chords

Abide

	  		Intro Bit: 
                                
e|----------0-------0-------0---------------0--------------0----------| 
B|--------3---3-------3-------3-----------3---3----------3---3--------| 
G|------0-------0-------0--------0------0-------0------2-------2---2--| 
D|----4-----------4-------4-----------2-----------4--0-----------0----| 
A|--2-------------------------------3---------------------------------| 
E|0-------------------------------------------------------------------| 

e|--------0-------0-------0-----------------0--------------0----------| 
B|----------3-------3-------3----3--------3---3---3------3---3----3---| 
G|------0-----0-------0--------0--------0-------0------2-------2------| 
D|----4---------4-------4-------------2--------------0----------------| 
A|--2-------------------------------3---------------------------------| 
E|0-------------------------------------------------------------------| 

Main Bit: 

e|--------------------------------------------------------------------| 
B|----3-1-----0-------3-1-----0-------3-1-----0-------3-1-0-----------| 
G|--------------0---------------0---------------0-----0-----2-0-------| 
D|--0-------0-------0-------0-------0-------0-------0-----------0-----| 
A|--------------------------------------------------------------------| 
E|3-------3-------3-------3-------3-------3-------3-------------------| 
   

e|--------------------------------------------------------------------| 
B|----3-1-----0-------3-1-----0-------3-1-----0-------3-1------0------| 
G|--------------0---------------0---------------0----------------0----| 
D|--0-------0-------0-------0-------0-------0-------0--------0--------| 
A|--------------------------------------------------------------------| 
E|3-------3-------3-------3-------3-------3-------3-------3-----------| 
  The more I go on with the Lord, I find that I cannot afford 

e|----------------------------------------0-------------2-------------| 
B|----3-1-----0-------3-1-----0---------3---3---------3---3-----------| 
G|--2-------2---2---2-------2---0-----0-------0-----2----------2------| 
D|----------------------------------2-----------2-0-------------------| 
A|0-------0-------0-------0-------3-----------------------------------| 
E|--------------------------------------------------------------------| 
  To stay away from His side, It's in the Vine I?ll abide. 

e|--------------------------------------------------------------------| 
B|----3-1-----0-------3-1-----0-------3-1-----0-------3-1-0-----------| 
G|--------------0---------------0-----0-0-------0-----------0---0-----| 
D|--0-------0-------0-------0-------0-------0-------0---------0-------| 
A|--------------------------------------------------------------------| 
E|3-------3-------3-------3-------3-------3-------3-------------------| 
  

e|--------------------------------------------------------------------| 
B|----3-1-----0-------3-1-----0-------3-1-----0-------3-1------0------| 
G|--------------0---------------0---------------0----------------0----| 
D|--0-------0-------0-------0-------0-------0-------0--------0--------| 
A|--------------------------------------------------------------------| 
E|3-------3-------3-------3-------3-------3-------3-------3-----------| 
  His words are truth and life to me, They cleanse and sanctify me 

e|----------------------------------------0-------------2-------------| 
B|----3-1-----0-------3-1-----0---------3---3---------3---3-----------| 
G|--2-------2---2---2-------2---0-----0-------0-----2----------2------| 
D|----------------------------------2-----------2-0-------------------| 
A|0-------0-------0-------0-------3-----------------------------------| 
E|--------------------------------------------------------------------| 
  I know His power can't be denied, It's in the Vine I?ll abide. 

e|------------------------------------| 
B|----3-1-----0-------3-1-0-----------| 
G|--------------0-----------2-0-------| 
D|--0-------0-------0-----------0-----| 
A|------------------------------------| 
E|3-------3-------3-------------------| 

Bridge Bit: 

e|--------0---------------0-------------------------------------------| 
B|------1---1-----------1---1---------3-1-----0-------3-1-0-----------| 
G|----2-------2-------0-------0-----------------0-----------0---------| 
D|--2-----------2---2-----------2---0-------0-------0---------0-------| 
A|0---------------3---------------------------------------------0-----| 
E|--------------------------------3-------3-------3-------------------| 
  A child of God I know I am 

e|--------0---------------0-------------------------------------------| 
B|------1---1-----------3---3---------3-1-----0-------3-1-0-----------| 
G|----2-------2-------0-------0-----------------0-----------0---0-----| 
D|--2-----------2---2-----------2---0-------0-------0---------0-------| 
A|0---------------3---------------------------------------------------| 
E|--------------------------------3-------3-------3-------------------| 
  I've been washed in the precious blood of the Lamb,  but I 

e|--------0---------------0-------------------------------------------| 
B|------1---1-----------3---3---------3-1-----0-------3-1-0-----------| 
G|----2-------2-------0-------0-----------------0-----------0---------| 
D|--2-----------2---2-----------2---0-------0-------0---------0-------| 
A|0---------------3---------------------------------------------0-----| 
E|--------------------------------3-------3-------3-------------------| 
  Haven?t touched the hole in His side 

e|--------0-----------0-----0---------------0-----------------------| 
B|------1---1-----3-----3-----3---------0h1---1---------------------| 
G|----0-------0-----0-----0-----0-----2---------2-------------------| 
D|--2-----------2-------------------2-------------2----------0------| 
A|3---------------2---------------0-----------------0--0-2-3--------| 
E|------------------------------------------------------------------| 
  But in the Vine I?ll abide. 

Back to Main Bit: 

e|--------------------------------------------------------------------| 
B|----3-1-----0-------3-1-----0-------3-1-----0-------3-1------0------| 
G|--------------0---------------0---------------0----------------0----| 
D|--0-------0-------0-------0-------0-------0-------0--------0--------| 
A|--------------------------------------------------------------------| 
E|3-------3-------3-------3-------3-------3-------3-------3-----------| 

e|--------------------------------------------------------------------| 
B|----3-1-----0-------3-1-----0-------3-1-----0-------3-1------0------| 
G|--------------0---------------0---------------0----------------0----| 
D|--0-------0-------0-------0-------0-------0-------0--------0--------| 
A|--------------------------------------------------------------------| 
E|3-------3-------3-------3-------3-------3-------3-------3-----------| 
  To bring forth fruit, this is my aim, And give the glory to Your Name 

e|----------------------------------------0-------------2-------------| 
B|----3-1-----0-------3-1-----0---------3---3---------3---3-----------| 
G|--2-------2---2---2-------2---0-----0-------0-----2-----------------| 
D|----------------------------------2-----------2-0-------------------| 
A|0-------0-------0-------0-------3-----------------------------------| 
E|--------------------------------------------------------------------| 
  To do the same, you must decide, If in the Vine you?ll abide. 

e|------------------------------------| 
B|----3-1-----0-------3-1-0-----------| 
G|--------------0-----------2-0-------| 
D|--0-------0-------0-----------0-----| 
A|------------------------------------| 
E|3-------3-------3-------------------| 

e|----------------------------------------0-------------2-3-2-0-2-----| 
B|----3-1-----0-------3-1-----0---------3---3---------3---------3-----| 
G|--2-------2---2---2-------2---0-----0-------0-----2-----------------| 
D|----------------------------------2-----------2-0-------------------| 
A|0-------0-------0-------0-------3-----------------------------------| 
E|--------------------------------------------------------------------| 
  To do the same, you must decide, If in the Vine you?ll abide. 

e|--------------------------------------------------------------------| 
B|----3-1-----0-------3-1-----0-------3-1-----0-------3-1------0------| 
G|--------------0---------------0---------------0----------------0----| 
D|--0-------0-------0-------0-------0-------0-------0--------0--------| 
A|--------------------------------------------------------------------| 
E|3-------3-------3-------3-------3-------3-------3-------3-----------| 

e|--------------------------------------------------------------------| 
B|----3-1-----0-------3-1-----0---------1-------1-------1--------1----| 
G|--------------0---------------0-----0-------0-------0--------0------| 
D|--0-------0-------0-------0-------0-------0-------0--------0--------| 
A|--------------------------------------------------------------------| 
E|3-------3-------3-------3-------3-------3-------3-------3-----------| 
                                  Jesus 

e|----------------------------------| 
B|------1-------1-------1-----------| 
G|----0-0-----0-0-----0-------0-----| 
D|--0-------0-------0-------0---0---| 
A|----------------------------------| 
E|3-------3-------3-------3---------| 
                       is the Vine. 
                                                       
e|-----------------------------0------------------------------------------------------------| 
B|-----3-1-0-----0---1-----3-----3-3-3---3-3-3-3-3--------------------------------0---------| 
G|-----------2-0-------2-----0-----------0-2-0-----0------------------------------0---------| 
D|---0-------------------2-----------0h2-------2-0-0------0h2p0-0h2p0-0h2p0-0h2p0-----------| 
A|-----------------0-------2-------3--------------------------------------------------------| 
E|3--------------------------------------------------3-------------------------------3------| 
   
   
Such a soothing and meaningful song.  Please rate!  Open to constructive criticism, so spot me on my errors! 
		  

See also:

tabs Deep Purple - Deep Purple - Smoke On The Water tabs Albert Hammond Jr - Miss Myrtle tabs Deep Purple - The Unwritten Law tabs Deep Purple - Pictures of Home tabs Deep Purple - Space Truckin tabs Deep Purple - Rat Bat Blues
e-chords

Other versions:

tabs Paul Clark - Abide tabs Misc Praise Songs - Abide With Me
auto scroll beats size up size down change color hide chords drawings
tab show chords e-chords YouTube Clip e-chords hide all tabs e-chords go to top tab

share with facebook