Paul Buchanan

Mid Air

Paul Buchanan

tabs Easy easy

by  PAULLET3

save to print version add songbook text version e-mail correct tuner
chordsukulelecavacokeyboardtabbassdrumsharmonicaflute Guitar Pro
close

there isn't a video lesson for this song

chords

Mid Air

Key:  C More
Mid Air Key GG
Mid Air Key G#G#
Mid Air Key AA
Mid Air Key A#A#(one step down)
Mid Air Key BB(half step down)
Mid Air Key CC(original key)
Mid Air Key C#C#(half step up)
Mid Air Key DD(one step up)
Mid Air Key D#D#
Mid Air Key EE
Mid Air Key FF
Mid Air Key F#F#
	  		

         C                   C 
E----0-0-3-3-3-3---|----0-0-3-3-3-3---| 
B----1-1-1-1-0-0-0-|----1-1-1-1-0-0---| 
G----------------0-|------------------| 
D------------------|------------------|    X2 
A--3---------------|--3---------------| 
E------------------|------------------| 

The buttons on your collar 
The Colour of your hair 
I think I see you everywhere 

        F                  F 
----1-1-5-5--------|--1-1-5-5---------| 
----1-1-6-6-6-6----|--1-1-6-6-6-6-----| 
------------5-5-1--|----------5-5-1---| 
----------------2--|--------------2---| 
--3----------------|3-----------------| 
-------------------|------------------| 
-------------------|------------------| 

I want to live forever 
And watch you dancing in the air 

        C                   C 
----0-0-3-3-3-3---|----0-0-3-3-3-3---| 
----1-1-1-1-0-0-0-|----1-1-1-1-0-0---| 
----------------0-|------------------| 
------------------|------------------| 
--3---------------|--3---------------| 
------------------|------------------| 


Chorus 

    F       G        Em        Am 
------------------|------------------| 
----5-3-1---5-3-1-|----5-3-1---5-3-1-| 
------------------|------------------| 
------------------|------------------| 
------------------|------------------| 
--1-------3-------|--0--------5------| 

All the lies and make believe, 
The very things that one day leave 

  F        G         Em         Am 
------------------|---5-3-0---5-3-0--| 
---5-3-1----5-3-1-|------------------| 
------------------|------------------| 
------------------|------------------| 
------------------|------------------| 
-1--------3-------|-0-------5--------| 

But I can see you standing in mid air 


         C                  C 
E----0-0-3-3-3-3---|----0-0-3-3-3-3---| 
B----1-1-1-1-0-0-0-|----1-1-1-1-0-0---| 
G----------------0-|------------------| 
D------------------|------------------|    X2 
A--3---------------|--3---------------| 
E------------------|------------------| 

The girl I want to marry 
Upon the high trapeze 
The day she fell and hurt her knees 

        F                   F 
----1-1-5-5--------|--1-1-5-5---------| 
----1-1-6-6-6-6----|--1-1-6-6-6-6-----| 
------------5-5-1--|----------5-5-1---| 
----------------2--|--------------2---| 
--3----------------|3-----------------| 
-------------------|------------------| 
-------------------|------------------| 

And only time can make you 
The wind that blows away the leaves 

          C                  C 
E----0-0-3-3-3-3---|----0-0-3-3-3-3---| 
B----1-1-1-1-0-0-0-|----1-1-1-1-0-0---| 
G----------------0-|------------------| 
D------------------|------------------| 
A--3---------------|--3---------------| 
E------------------|------------------| 


Chorus: 

  F        G         Em        Am 
------------------|------------------| 
----5-3-1---5-3-1-|----5-3-1---5-3-1-| 
------------------|------------------| 
------------------|------------------| 
------------------|------------------| 
--1-------3-------|--0--------5------| 

For everything the life was worth 
The fallen snow, the virgin birth 

 F        G          Em        Am 
------------------|---5-3-0---5-3-0--| 
---5-3-1----5-3-1-|------------------| 
------------------|------------------| 
------------------|------------------| 
------------------|------------------| 
-1--------3-------|-0-------5--------| 

But I can see you standing in mid air 


ENDING: 

  F          G        Em       Am 
------------------|---5-3-0---5-3-0--| 
---5-3-1----5-3-1-|------------------| 
------------------|------------------| 
------------------|------------------| 
------------------|------------------| 
-1--------3-------|-0-------5--------| 

But I can see you standing in mid air 

   F         G              C (pluck or strum) 
------------------|----------3-------| 
---5-3-1----5-3-1-|----------1-------| 
------------------|------------------| 
------------------|------------------| 
------------------|----------3-------| 
-1--------3-------|------------------| 
		  

Full key step upFull key step up
Half key step upHalf key step up
Half key step downHalf key step down
Full key step downFull key step down
hide glossary

See also:

tabs Deep Purple - Strange kind of woman tabs Deep Purple - Smoke On The Water tabs Deep Purple - Time To Kill tabs Albert Hammond Jr - Gfc tabs Deep Purple - Soldier Of Fortune tabs Ira! - Nucleo De Base
e-chords

Other versions:

tabs Paul Buchanan - Mid Air
auto scroll beats size up size down change color hide chords drawings
tab show chords e-chords YouTube Clip e-chords hide all tabs e-chords go to top tab

share