Patsy Cline

In Care Of The Blues

Patsy Cline

tabs

by  HEBEALMEIDA

save to print version add songbook text version e-mail correct tuner
chordsukulelecavacokeyboardtabbassdrumsharmonicaflute Guitar Pro
close

there isn't a video lesson for this song

chords

In Care Of The Blues

	  		

INTRO 0:00 

Guitar 1 
e|---------------------------------------------------------------------------| 
B|---------------------------------------------------------------------------| 
G|--12p11p9----------9-(3x)---7h999-7h999-7h999-7h999-7--7/9 \7--------------| 
D|-----------12-9-12-------------------------------------9/11\9--------------| 
A|---------------------------------------------------------------------------| 
E|---------------------------------------------------------------------------| 
Guitar 2 
e|---------------------------------------------------------------------------| 
B|---------------------------------------------------------------------------| 
G|---------------------------------------------------------------------------| 
D|---------------------------------------------------------------------------| 
A|--22222-(3x)--22-22-22-----------------------------------------------------| 
E|--00000-------00-33-55-66-7------------------------------------------------| 


Guitar 2 does this for remainder of song I think, it might be wrong. 

e|-------------------------------------------------------------------------------------| 
B|-------------------------------------------------------------------------------------| 
G|-------------------------------------------------------------------------------------| 
D|-------------------------------------------------------------------------------------| 
A|-----33----33----33----33----22----22----22----22----55----55----77----77----33----33| 
E|--55----55----55----55----33----33----33----33----77----77----88----88----55----55---| 
P.M... .. .. .. .. .. .. .. .. .. .. .. .. .. .. .. .. .. .. .. .. .. .. .. .. .. .. .. 


Guitar 1 
   0:16           0:20       0:30 
e|------12\10--------10\8----------------------------------------------------| 
B|------12\10--------10\8----------------------------------------------------| 
G|-9h11----------7h9--------9-9---------9-9---------9------------------------| 
D|------------------------------11-9-11-----11-9-11--------------------------| 
A|---------------------------------------------------------------------------| 
E|---------------------------------------------------------------------------| 
     ^             ^ 
    /|\           /|\ 
     |             | 
   0:36          0:40 


   0:50                    0:55                    1:00 
e|--10/12-12-10/12-12-10-------------15-12---------------------12---------------| 
B|--10/12-12-10/12-12-10-------12-15-------15-12---------12-15----15------------| 
G|--------------------------14---------------------12-14-------------16p14p12---| 
D|----------------------------------------------------------------------------14| 
A|------------------------------------------------------------------------------| 
E|------------------------------------------------------------------------------| 
   1:10                         1:15        1:20      
e|-----------------------------------12\10------10\8-------------------------| 
B|-----------------------------------12\10------10\8-------------------------| 
G|-14-12----12-14-16-14-12------9h11--------7h9------------------------------| 
D|-------14----------------14------------------------------------------------| 
A|---------------------------------------------------------------------------| 
E|---------------------------------------------------------------------------| 


    1:30 
e|------------------------------------------------15-12-15-12----12-12-------| 
B|--12/14-14\12-12/14-14-12/14-14-12/14--------12-------------15-------------| 
G|--12/14-14\12-12/14-14-12/14-14-12/14--14-16-------------------------------| 
D|---------------------------------------------------------------------------| 
A|---------------------------------------------------------------------------| 
E|---------------------------------------------------------------------------| 
    1:38 
e|--15-17-15-17b-17p15-------------------------------------------------------| 
B|---------------------17p15-------------------------------------------------| 
G|---------------------------16-14-12----16p14h16p14p12----------------------| 
D|------------------------------------14----------------14--12----12-14------| 
A|-------------------------------------------------------------14------------| 
E|---------------------------------------------------------------------------| 


 
		  

See also:

tabs Alabama - Dixieland Delight tabs Bat Country - Avenged sevenfold tabs Hank Williams Jr - Family Tradition tabs Big & Rich - Save A Horse Ride A Cowboy-correct tabs Kansas - Carry On My Wayward Son tabs Hayseed Dixie - Walk This Way
e-chords

Other versions:

tabs Patsy Cline - In Care Of The Blues
auto scroll beats size up size down change color hide chords drawings
tab show chords e-chords YouTube Clip e-chords hide all tabs e-chords go to top tab

share