Pascow

Zuviel Fur Berlin

Pascow

tabs

by  ADALGOMES

save to print version add songbook text version e-mail correct tuner
chordsukulelecavacokeyboardtabbassdrumsharmonicaflute Guitar Pro
close

there isn't a video lesson for this song

chords

Zuviel Fur Berlin

	  		Pascow - Zuviel für Berlin 

Tuning: Standard 

Legend: 
\   slide down 
~   let ring 


Intro: 
Guitar 1: 
e|-----5---5----5---5----5---5----5---5----5---5----5---5----5---5----8-6-5------| 
B|---66-666-6-66-666-6-66-666-6-66-666-6-66-666-6-66-666-6-66-666-6-66------5----| 
G|-----------|--------|--------|--------|--------|--------|--------|-------------| 
D|-----------|--------|--------|--------|--------|--------|--------|-------------| 
A|-----------|--------|--------|--------|--------|--------|--------|-------------| 
E|-----------|--------|--------|--------|--------|--------|--------|-------------| 
 |           |        |        |        |        |        |        |             | 
Guitar 2:    |        |        |        |        |        |        |             | 
e|-----------|--------|--------|--------|--------|--------|--------|-------------| 
B|-----------|--------|--------|--------|--------|--------|--------|-------------| 
G|-----------|--------|--------|--------|--------|--------|--------|-------------| 
D|-----------|--------|--------|--------|--------|--------|--------|-------------| 
A|------------33333333-55555533-11111111----------33333333-55555555-3~~~~~~\1----| 
E|---11111111----------------------------11111111--------------------------------| 


e|-----5---5----5---5----5---5----8-6-5----5---5----5---5----5---5----8-6-5------| 
B|---66-666-6-66-666-5-55-555-5-55-----5-66-666-6-66-666-5-55-555-5-55------56~~-| 
G|-----------|--------|--------|--------|--------|--------|--------|-------------| 
D|-----------|--------|--------|--------|--------|--------|--------|-------------| 
A|-----------|--------|--------|--------|--------|--------|--------|-------------| 
E|-----------|--------|--------|--------|--------|--------|--------|-------------| 
 |           |        |        |        |        |        |        |             | 
 |           |        |        |        |        |        |        |             | 
e|-----------|--------|--------|--------|--------|--------|--------|-------------| 
B|-----------|--------|--------|--------|--------|--------|--------|-------------| 
G|-----------|--------|--------|--------|--------|--------|--------|-------------| 
D|-----------|--------|--------|--------|--------|--------|--------|-------------| 
A|------------33333333-55555533-11111111----------33333333-5~~~~~~~-3~~~~~~\1----| 
E|---11111111----------------------------11111111--------------------------------| 


Verse: 
Guitar 1:               
e|--------------------------------------||-------------------------------------|| 
B|--6~~~~~~~-55555555-66666666-55555555-|:-66666666-55555555-66666666-55555555-:| 
G|--------------------------------------||-------------------------------------|| 
D|--------------------------------------||-------------------------------------2x 
A|--------------------------------------|:-------------------------------------:| 
E|--------------------------------------||-------------------------------------|| 
                                        ||                                     || 
Guitar 2:                               ||                                     || 
e|--------------------------------------||-------------------------------------|| 
B|--------------------------------------|:-------------------------------------:| 
G|-----------55555555-77777777-33333333-||----------55555555-77777777-33333333-|| 
D|--33333333-55555555-77777777-33333333-||-33333333-55555555-77777777-33333333-2x 
A|--33333333-33333333-55555555-11111111-|:-33333333-33333333-55555555-11111111-:| 
E|--11111111----------------------------||-11111111----------------------------|| 

e|--------------------------------------| 
B|--66666666-55555555-66666666-66666666-| 
G|--------------------------------------| 
D|--------------------------------------| 
A|--------------------------------------| 
E|--------------------------------------| 
 |                                      | 
 |                                      | 
e|--------------------------------------| 
B|--------------------------------------| 
G|-----------55555555-77777777-33333333-| 
D|--33333333-55555555-77777777-33333333-| 
A|--33333333-33333333-55555555-11111111-| 
E|--11111111----------------------------| 


Chorus: 
Guitar 2: 
e||-------------------------------------||------------------------------------| 
B|:-------------------------------------:|------------------------------------| 
G||----------55555555-77777777-33333333-||----------55555555-7--------3-------| 
D||-33333333-55555555-77777777-33333333-3x-33333333-55555555-7--------3-------| 
A|:-33333333-33333333-55555555-11111111-:|-33333333-33333333-5--------1-------| 
E||-11111111----------------------------||-11111111---------------------------| 


Interlude: (Same as 2nd part of the intro) 
Guitar 1: 
e|-----5---5----5---5----5---5----8-6-5----5---5----5---5----5---5----8-6-5------| 
B|---66-666-6-66-666-5-55-555-5-55-----5-66-666-6-66-666-5-55-555-5-55------56~~-| 
G|-----------|--------|--------|--------|--------|--------|--------|-------------| 
D|-----------|--------|--------|--------|--------|--------|--------|-------------| 
A|-----------|--------|--------|--------|--------|--------|--------|-------------| 
E|-----------|--------|--------|--------|--------|--------|--------|-------------| 
 |           |        |        |        |        |        |        |             | 
Guitar 2:    |        |        |        |        |        |        |             | 
e|-----------|--------|--------|--------|--------|--------|--------|-------------| 
B|-----------|--------|--------|--------|--------|--------|--------|-------------| 
G|-----------|--------|--------|--------|--------|--------|--------|-------------| 
D|-----------|--------|--------|--------|--------|--------|--------|-------------| 
A|------------33333333-55555533-11111111----------33333333-5~~~~~~~-3~~~~~~\1----| 
E|---11111111----------------------------11111111--------------------------------| 


Bridge: 
Guitar 1:               
e|--------------------------------------||-------------------------------------|| 
B|--------------------------------------|:-6~~~~~~~-5~~~~~~~-6~~~~~~~-3~~~~~~~-:| 
G|--------------------------------------||-------------------------------------|| 
D|--------------------------------------||-------------------------------------4x 
A|--------------------------------------|:-------------------------------------:| 
E|--------------------------------------||-------------------------------------|| 
 |                                      ||                                     || 
Guitar 2:                               ||                                     || 
e|--------------------------------------||-------------------------------------|| 
B|--------------------------------------|:-------------------------------------:| 
G|--------------------------------------||-------------------------------------|| 
D|--33333333----------------------------||-------------------------------------4x 
A|--33333333-33333333-55555555-11111111-|:----------33333333-55555555-11111111-:| 
E|--11111111----------------------------||-11111111----------------------------|| 

               
e|--------------------------------------| 
B|--6~~~~~~~-5~~~~~~~-6~~~~~~~-6--------| 
G|--------------------------------------| 
D|--------------------------------------| 
A|--------------------------------------| 
E|--------------------------------------| 
 |                                      | 
 |                                      | 
e|--------------------------------------| 
B|--------------------------------------| 
G|--------------------------------------| 
D|--------------------------------------| 
A|-----------33333333-55555555-1--------| 
E|--11111111----------------------------| 


Outro: (Nearly the same as verse except the end) 
Guitar 1: 
e||-------------------------------------||----------------------------------------| 
B|:-------------------------------------:|----------------------------3-----3-----| 
G||-------------------------------------||------------------------------5-3----2~-| 
D||-------------------------------------3x----------------------------------------| 
A|:-------------------------------------:|----------------------------------------| 
E||-------------------------------------||----------------------------------------| 
 ||                                     ||                                        | 
Guitar 2:                               ||                                        | 
e||-------------------------------------||----------------------------------------| 
B|:-------------------------------------:|----------------------------------------| 
G||----------55555555-77777777-33333333-||----------55555555-77777777-3~~~~~~~----| 
D||-33333333-55555555-77777777-33333333-3x-33333333-55555555-77777777-3~~~~~~~-3~-| 
A|:-33333333-33333333-55555555-11111111-:|-33333333-33333333-57777777-1~~~~~~~-3~-| 
E||-11111111----------------------------||-11111111----------------------------1~-| 


Song schema: 

Intro 
Verse 
Chorus 
Interlude 
Verse 
Chorus 
Bridge 
Outro 
		  

auto scroll beats size up size down change color hide chords drawings
tab show chords e-chords YouTube Clip e-chords hide all tabs e-chords go to top tab

share