Parkway Drive

Sleight Of Hand

Parkway Drive

tabs

by  MARCNAGEL

save to print version add songbook text version e-mail correct tuner
chordsukulelecavacokeyboardtabbassdrumsharmonicaflute Guitar Pro
close

there isn't a video lesson for this song

chords

Sleight Of Hand

	  		

Tuning: B F# B E G# C# 


INTRO 
1 
---------------------------------------------------------------| 
---6---SWELLS AND SLIGHTLY BENDS-----------------------------| 
---9---------------------------------------------------------| 
---------------------------------------------------------------| 
---------------------------------------------------------------| 
---------------------------------------------------------------| 

2  0:06 
---------------------------------------------------------------| 
---------------------------------------------------------------| 
-----------------------------------------REPEATS---------------| 
---------------------------------------------------------------| 
--0-------------------------------3----------------------------| 
--0-------------------------------3----------------------------| 

0:16 
3       __ 
       /  \ 
--20-19-20-19----19----19-17-----------------| 
--------------20----19-------17--------------| 
------------------------------------REPEATS--| 
---------------------------------------------| 
---------------------------------------------| 
---------------------------------------------| 

||||||||||||||||||||||||||||||||||||||||||||||||||||||||||||| 



0:28 

1 
----------------------------------------------------------------| 
----------------------------------------------------------------| 
1010-999------999----999----777-1010-999------999----999----777-| 
---------1010-----99-----77--------------1010-----99-----77-----| 
----------------------------------------------------------------| 
----------------------------------------------------------------| 
 * *      * *     **     **      * *      * *     **     **      
2 
-------------------------------------------------------------| 
-------------------------------------------------------------| 
-------------------------------------------------------------| 
-------------------------------------------------------------| 
-0-0-000--0-000--0-000--0-000--2-2-222--2-222--2-222--2-222--| 
-0-0-000--0-000--0-000--0-000--2-2-222--2-222--2-222--2-222--| 
 * * ***  * ***  * ***  * ***  * * ***  * ***  * ***  * *** 


1 
----------------------------------------------------------------| 
----------------------------------------------------------------| 
1010-999------999----999----777-1010-999------999----999----777-| 
---------1010-----99-----77--------------1010-----99-----77-----| 
----------------------------------------------------------------| 
----------------------------------------------------------------| 
 * *      * *     **     **      * *      * *     **     **   

2 
---------------------------------------------------------------| 
---------------------------------------------------------------| 
---------------------------------------------------------------| 
---------------------------------------------------------------| 
-3-3-333--3-333--3-333--3-333--5-5-555--5-555--5-555--5-555----| 
-3-3-333--3-333--3-333--3-333--5-5-555--5-555--5-555--5-555----| 
 * * ***  * ***  * ***  * ***  * * ***  * ***  * ***  * *** 



0:40 
1 
----------------------------------------------------------------| 
----------------------------------------------------------------| 
1010-999------999----999----777-1010-999------999----999----777-| 
---------1010-----99-----77--------------1010-----99-----77-----| 
----------------------------------------------------------------| 
----------------------------------------------------------------| 
 * *      * *     **     **      * *      * *     **     **   
2 
-------------------------------------------------------------| 
-------------------------------------------------------------| 
-------------------------------------------------------------| 
-------------------------------------------------------------| 
-0-0-000--0-000--0-000--0-000--2-2-222--2-222--2-222--2-222--| 
-0-0-000--0-000--0-000--0-000--2-2-222--2-222--2-222--2-222--| 
 * * ***  * ***  * ***  * ***  * * ***  * ***  * ***  * *** 
3      __                           __ 
      /  \                         /  \ 
-20-19-20-19---19----19-17----20-19-20-19---19----19-17------| 
------------20----19------17-------------20----19------17----| 
-------------------------------------------------------------| 
-------------------------------------------------------------| 
-------------------------------------------------------------| 
-------------------------------------------------------------| 


1 
----------------------------------------------------------------| 
----------------------------------------------------------------| 
1010-999------999----999----777-1010-999------999----999----777-| 
---------1010-----99-----77--------------1010-----99-----77-----| 
----------------------------------------------------------------| 
----------------------------------------------------------------| 
 * *      * *     **     **      * *      * *     **     **   

2 
-------------------------------------------------------------| 
-------------------------------------------------------------| 
-------------------------------------------------------------| 
-------------------------------------------------------------| 
-3-3-333--3-333--3-333--3-333--5-5-555--5-555--5-555--5-\----| 
-3-3-333--3-333--3-333--3-333--5-5-555--5-555--5-555--5-\----| 
 * * ***  * ***  * ***  * ***  * * ***  * ***  * ***  *  

3      __                           __ 
      /  \                         /  \ 
-20-19-20-19---19----19-17----20-19-20-19---19----19-17------| 
------------20----19------17-------------20----19------17----| 
-------------------------------------------------------------| 
-------------------------------------------------------------| 
-------------------------------------------------------------| 
-------------------------------------------------------------| 




0:54 

1+2 
---------------------------------------------------------------------| 
---------------------------------------------------------------------| 
-----------------------------------------------------------------7---| 
-------------------------------------------------------------------7-| 
---------------------------------------------------------------------| 
-880-0-0-0-0-0-0-880-0-0-0-0-0-0-880-0-0-0-0-0-0-888-8-101010-10-----| 
 *** * * * * * * *** * * * * * * *** * * * * * * *** *  * * *  *  

---------------------------------------------------------------------| 
-----------------------------------------------------------------H---| 
-----------------------------------------------------------------7-H-| 
-------------------------------------------------------------------7-| 
---------------------------------------------------------------------| 
-880-0-0-0-0-0-0-880-0-0-0-0-0-0-880-0-0-0-0-0-0-888-8-101010-10-----| 
 *** * * * * * * *** * * * * * * *** * * * * * * *** *  * * *  * 

---------------------------------------------------------------------| 
---------------------------------------------------------------------| 
-----------------------------------------------------------------7---| 
-------------------------------------------------------------------7-| 
---------------------------------------------------------------------| 
-880-0-0-0-0-0-0-880-0-0-0-0-0-0-880-0-0-0-0-0-0-888-8-101010-10-----| 
 *** * * * * * * *** * * * * * * *** * * * * * * *** *  * * *  *  

---------------------------------------------------------------------| 
-----------------------------------------------------------------H---| 
-----------------------------------------------------------------7-H-| 
-------------------------------------------------------------------7-| 
---------------------------------------------------------------------| 
-880-0-0-0-0-0-0-880-0-0-0-0-0-0-880-0-0-0-0-0-0-888-8-101010-10-----| 
 *** * * * * * * *** * * * * * * *** * * * * * * *** *  * * *  * 




1:19 

1 
       __                           __ 
      /  \                         /  \ 
-20-19-20-19---19----19-17----20-19-20-19---19----19-17------| 
------------20----19------17-------------20----19------17----| 
-------------------------------------------------------------| 
-------------------------------------------------------------| 
-------------------------------------------------------------| 
-------------------------------------------------------------| 
2 
---------------------------------------------------------------| 
---------------------------------------------------------------| 
---------------------------------------------2-----------------| 
------------------------------2--------------3-----------------| 
------------------------------2--2-2-2--2-2-----3-3-3---\------| 
------------------------------2--2-2-2--2-2-----3-3-3---\------| 


1 
----------------------------------------------------------------| 
----------------------------------------------------------------| 
1010-999------999----999----777-1010-999------999----999----777-| 
---------1010-----99-----77--------------1010-----99-----77-----| 
----------------------------------------------------------------| 
----------------------------------------------------------------| 
 * *      * *     **     **      * *      * *     **     **   
2 
-------------------------------------------------------------| 
-------------------------------------------------------------| 
-------------------------------------------------------------| 
-------------------------------------------------------------| 
-0-0-000--0-000--0-000--0-000--2-2-222--2-222--2-222--2-222--| 
-0-0-000--0-000--0-000--0-000--2-2-222--2-222--2-222--2-222--| 
 * * ***  * ***  * ***  * ***  * * ***  * ***  * ***  * *** 


1 
----------------------------------------------------------------| 
----------------------------------------------------------------| 
1010-999------999----999----777-1010-999------999----999----777-| 
---------1010-----99-----77--------------1010-----99-----77-----| 
----------------------------------------------------------------| 
----------------------------------------------------------------| 
 * *      * *     **     **      * *      * *     **     **   

2 
---------------------------------------------------------------| 
---------------------------------------------------------------| 
---------------------------------------------------------------| 
---------------------------------------------------------------| 
-3-3-333--3-333--3-333--3-333--5-5-555--5-555--5-555--5-555----| 
-3-3-333--3-333--3-333--3-333--5-5-555--5-555--5-555--5-555----| 
 * * ***  * ***  * ***  * ***  * * ***  * ***  * ***  * *** 

1 
----------------------------------------------------------------| 
----------------------------------------------------------------| 
1010-999------999----999----777-1010-999------999----999----777-| 
---------1010-----99-----77--------------1010-----99-----77-----| 
----------------------------------------------------------------| 
----------------------------------------------------------------| 
 * *      * *     **     **      * *      * *     **     **   
2 
-------------------------------------------------------------| 
-------------------------------------------------------------| 
-------------------------------------------------------------| 
-------------------------------------------------------------| 
-0-0-000--0-000--0-000--0-000--2-2-222--2-222--2-222--2-222--| 
-0-0-000--0-000--0-000--0-000--2-2-222--2-222--2-222--2-222--| 
 * * ***  * ***  * ***  * ***  * * ***  * ***  * ***  * *** 


1 
----------------------------------------------------------------| 
----------------------------------------------------------------| 
1010-999------999----999----777-1010-999------999----999----777-| 
---------1010-----99-----77--------------1010-----99-----77-----| 
----------------------------------------------------------------| 
----------------------------------------------------------------| 
 * *      * *     **     **      * *      * *     **     **   

2 
---------------------------------------------------------------| 
---------------------------------------------------------------| 
---------------------------------------------------------------| 
---------------------------------------------------------------| 
-3-3-333--3-333--3-333--3-333--5-5-555--5-555--5-555--5-555----| 
-3-3-333--3-333--3-333--3-333--5-5-555--5-555--5-555--5-555----| 
 * * ***  * ***  * ***  * ***  * * ***  * ***  * ***  * *** 



1:51 

1+2 
-----------------------------------_____-------| 
----------------------------------/     \------| 
------7-------9---------10------10-12-10\9-10~-| 
-7777---7--88---8--1010----1010----------------| 
-----------------------------------------------| 
-----------------------------------------------| 
 ****      **       * *     * * 

-------------------------------PH-------------| 
-------------------------------10-PH-PH-------| 
------7-------9---------10--------10-9-PH-----| 
---77---7--88---8--1010----10----------10-----| 
----------------------------------------------| 
----------------------------------------------| 
  **      **       * *     *  


-----------------------------------_____-------| 
----------------------------------/     \------| 
------7-------9---------10------10-12-10\9-10~-| 
---77---7--88---8--1010----1010----------------| 
-----------------------------------------------| 
-----------------------------------------------| 
  **      **       * *     * * 

-------------------------------PH-------------| 
-------------------------------10-PH-PH-------| 
------7-------9---------10--------10-9-PH-----| 
---77---7--88---8--1010----10----------10-----| 
----------------------------------------------| 
----------------------------------------------| 
  **      **       * *     *  


-----------------------------------_____-------| 
----------------------------------/     \------| 
------7-------9---------10------10-12-10\9-10~-| 
---77---7--88---8--1010----1010----------------| 
-----------------------------------------------| 
-----------------------------------------------| 
  **      **       * *     * * 

-------------------------------PH-------------| 
-------------------------------10-PH-PH-------| 
------7-------9---------10--------10-9-PH-----| 
---77---7--88---8--1010----10----------10-----| 
----------------------------------------------| 
----------------------------------------------| 
  **      **       * *     *  


-----------------------------------_____-------| 
----------------------------------/     \------| 
------7-------9---------10------10-12-10\9-10~-| 
---77---7--88---8--1010----1010----------------| 
-----------------------------------------------| 
-----------------------------------------------| 
  **      **       * *     * * 

----------------------| 
----------------------| 
------7-------9-------| 
---77---7--88---8-----| 
----------------------| 
----------------------| 
  **      **       



2:18 

1+2 
-----------------------------------------------------| 
-----------------------------------------------------| 
----_____---------------_____------------------------| 
---/     \-------------/     \-----------------------| 
-10-12-10\8-12-------10-12-10\8----------------------| 
---------------0-0-0------------12-0-0-0-0000-0000---| 
               * * *               * * * **** **** 

----------------------------------------------------8----| 
----------------------------------------10-8-8--------10-| 
----_____---------------_____-----9-77---------1010------| 
---/     \-------------/     \---------------------------| 
-10-12-10\8-12-------10-12-10\8--------------------------| 
---------------0-0-0-------------------------------------| 
               * * *                **          * * 

-----------------------------------------------------| 
-----------------------------------------------------| 
----_____---------------_____------------------------| 
---/     \-------------/     \-----------------------| 
-10-12-10\8-12-------10-12-10\8----------------------| 
---------------0-0-0------------12-0-0-0-0000-0000---| 
               * * *               * * * **** **** 

-------------------------------------| 
-------------------------------------| 
----_____---------------_____--------| 
---/     \-------------/     \-------| 
-10-12-10\8-12-------10-12-10\8------| 
---------------0-0-0-----------------| 
               * * *                


2:30 
L 
-----------------------------------------------------| 
-----------------------------------------------------| 
----_____---------------_____------------------------| 
---/     \-------------/     \-----------------------| 
-10-12-10\8-12-------10-12-10\8----------------------| 
---------------0-0-0------------12-0-0-0-0000-0000---| 
               * * *               * * * **** **** 
R 
-----------------------------------------------------| 
-----------------------------------------------------| 
---___-----------------___---------------------------| 
--/   \---------------/   \--------------------------| 
-7-8-7\5--8----------7-8-7\5-------------------------| 
--------------0-0-0----------7---0-0-0-0000-0000-----| 
              * * *              * * * **** **** 

L 

----------------------------------------------------8----| 
----------------------------------------10-8-8--------10-| 
----_____---------------_____-----9-77---------1010------| 
---/     \-------------/     \---------------------------| 
-10-12-10\8-12-------10-12-10\8--------------------------| 
---------------0-0-0-------------------------------------| 
               * * *                **          * * 
R 
----------------------------------------8-7-8-------12-8-| 
---------------------------------8-66----------1010------| 
---___-----------------___-------------------------------| 
--/   \---------------/   \------------------------------| 
-7-8-7\5--8----------7-8-7\5-----------------------------| 
--------------0-0-0--------------------------------------| 
              * * *                **           * * 
  

L 
-----------------------------------------------------| 
-----------------------------------------------------| 
----_____---------------_____------------------------| 
---/     \-------------/     \-----------------------| 
-10-12-10\8-12-------10-12-10\8----------------------| 
---------------0-0-0------------12-0-0-0-0000-0000---| 
               * * *               * * * **** **** 
R 
-----------------------------------------------------| 
-----------------------------------------------------| 
---___-----------------___---------------------------| 
--/   \---------------/   \--------------------------| 
-7-8-7\5--8----------7-8-7\5-------------------------| 
--------------0-0-0----------7---0-0-0-0000-0000-----| 
              * * *              * * * **** **** 

L 
-----------------------------------| 
-----------------------------------| 
----_____---------------_____------| 
---/     \-------------/     \-----| 
-10-12-10\8-12-------10-12-10\8----| 
---------------0-0-0---------------| 
               * * *                
R 
---------------------------------| 
---------------------------------| 
---___-----------------_____-----| 
--/   \---------------/      \---| 
-7-8-7\5--8----------10-12-10\8--| 
--------------0-0-0--------------| 
              * * *             


L           R          L            R 
--12-12------19-19-------151515------242424------| 
--------12---------19-----------15----------24---| 
-------------------------------------------------| 
-------------------------------------------------| 
-------------------------------------------------| 
-------------------------------------------------| 


2:43 

1+2 
---------------------------------------------------------------------| 
---------------------------------------------------------------------| 
-----------------------------------------------------------------7---| 
-------------------------------------------------------------------7-| 
---------------------------------------------------------------------| 
-880-0-0-0-0-0-0-880-0-0-0-0-0-0-880-0-0-0-0-0-0-888-8-101010-10-----| 
 *** * * * * * * *** * * * * * * *** * * * * * * *** *  * * *  *  


---------------------------------------------------------------------| 
-----------------------------------------------------------------H---| 
-----------------------------------------------------------------7-H-| 
-------------------------------------------------------------------7-| 
---------------------------------------------------------------------| 
-880-0-0-0-0-0-0-880-0-0-0-0-0-0-880-0-0-0-0-0-0-888-8-101010-10-----| 
 *** * * * * * * *** * * * * * * *** * * * * * * *** *  * * *  * 


2:56 

----------------------------------------------------------------------------| 
----------------------------------------------------------------------------| 
-------------------------------------------------------------------------7--| 
---------------------------------------------------------------------------7| 
----------------------------------------------------------------------------| 
-101212-0-0-0-0-0-0-101212-0-0-0-0-0-0-101212-0-0-0-0-0-0-888-8-101010-10---| 
 *  * * * * * * * *  * * * * * * * * *  * * * * * * * * * *** *  * * *  *  

L 
--------------------------------------------------------------------------| 
--------------------------------------------------------------------------| 
--------------------------------------------------------------------------| 
--------------------------------------------------------------------------| 
--------------------------------------------------------------------------| 
-101212-0-0-0-0-0-0-101212-0-0-0-0-0-0-101212-0-0-0-0-0-0-888-8-101010-10-| 
  * * * * * * * * *  * * * * * * * * *  * * * * * * * * * *** *  * * *  * 
R 
--------------------------------------------------------------------------| 
--------------------------------------------------------------------------| 
--------------------------------------------------------------------------| 
--------------------------------------------------------------------------| 
--------------------------------------------------------------------------| 
-141515-0-0-0-0-0-0-141515-0-0-0-0-0-0-141515-0-0-0-0-0-0-888-8-101010-10-| 
  * * * * * * * * *  * * * * * * * * *  * * * * * * * * * *** *  * * *  * 

B 
-------------------------------------| 
----------------------------H--------| 
----------------------------7-H------| 
------------------------------7------| 
-------------------------------------| 
-888-8-101010-10-121212-12-----------| 
 *** *  * * *  *  * * *  * 



3:10 

1 
       __                           __ 
      /  \                         /  \ 
-20-19-20-19---19----19-17----20-19-20-19---19----19-17------| 
------------20----19------17-------------20----19------17----| 
-------------------------------------------------------------| 
-------------------------------------------------------------| 
-------------------------------------------------------------| 
-------------------------------------------------------------| 

2 
---------------------------------------------------------------| 
---------------------------------------------------------------| 
---------------------------------------------------------------| 
---------------------------------------------------------------| 
--0----------------------------2-------------------------------| 
--0----------------------------2-------------------------------| 


1 
       __                           __ 
      /  \                         /  \ 
-20-19-20-19---19----19-17----20-19-20-19---19----19-17------| 
------------20----19------17-------------20----19------17----| 
-------------------------------------------------------------| 
-------------------------------------------------------------| 
-------------------------------------------------------------| 
-------------------------------------------------------------| 

2 
---------------------------------------------------------------| 
---------------------------------------------------------------| 
---------------------------------------------------------------| 
---------------------------------------------------------------| 
--3----------------------------5-------------------------------| 
--3----------------------------5-------------------------------| 



1 
       __                           __ 
      /  \                         /  \ 
-20-19-20-19---19----19-17----20-19-20-19---19----19-17------| 
------------20----19------17-------------20----19------17----| 
-------------------------------------------------------------| 
-------------------------------------------------------------| 
-------------------------------------------------------------| 
-------------------------------------------------------------| 

2 BOUNCE HAND OFF TREM BRIDGE TO INCREASE PITCH BACK/FORTH THROUGHOUT 
---------------------------------------------------------------| 
---------------------------------------------------------------| 
-10---------------------------12-------------------------------| 
--X----------------------------X-------------------------------| 
--8---------------------------10-------------------------------| 
---------------------------------------------------------------| 


1 
       __                           __ 
      /  \                         /  \ 
-20-19-20-19---19----19-17----20-19-20-19---19----19-17------| 
------------20----19------17-------------20----19------17----| 
-------------------------------------------------------------| 
-------------------------------------------------------------| 
-------------------------------------------------------------| 
-------------------------------------------------------------| 

2 
---------------------------------------------------------------| 
---------------------------------------------------------------| 
-14---------------------------17-------------------------------| 
--X----------------------------X-----------------P-------------| 
-12---------------------------15------------------S\-----------| 
---------------------------------------------------------------| 



1 
----------------------------------------------------------------| 
----------------------------------------------------------------| 
1010-999------999----999----777-1010-999------999----999----777-| 
---------1010-----99-----77--------------1010-----99-----77-----| 
----------------------------------------------------------------| 
----------------------------------------------------------------| 
 * *      * *     **     **      * *      * *     **     **      
2 
-------------------------------------------------------------| 
-------------------------------------------------------------| 
-------------------------------------------------------------| 
-------------------------------------------------------------| 
-0-0-000--0-000--0-000--0-000--2-2-222--2-222--2-222--2-222--| 
-0-0-000--0-000--0-000--0-000--2-2-222--2-222--2-222--2-222--| 
 * * ***  * ***  * ***  * ***  * * ***  * ***  * ***  * *** 



1 
----------------------------------------------------------------| 
----------------------------------------------------------------| 
1010-999------999----999----777-1010-999------999----999----777-| 
---------1010-----99-----77--------------1010-----99-----77-----| 
----------------------------------------------------------------| 
----------------------------------------------------------------| 
 * *      * *     **     **      * *      * *     **     **   

2 
---------------------------------------------------------------| 
---------------------------------------------------------------| 
---------------------------------------------------------------| 
---------------------------------------------------------------| 
-3-3-333--3-333--3-333--3-333--5-5-555--5-555--5-555--5-555----| 
-3-3-333--3-333--3-333--3-333--5-5-555--5-555--5-555--5-555----| 
 * * ***  * ***  * ***  * ***  * * ***  * ***  * ***  * *** 



1 
----------------------------------------------------------------| 
----------------------------------------------------------------| 
1010-999------999----999----777-1010-999------999----999----777-| 
---------1010-----99-----77--------------1010-----99-----77-----| 
----------------------------------------------------------------| 
----------------------------------------------------------------| 
 * *      * *     **     **      * *      * *     **     **   
2 
-------------------------------------------------------------| 
-------------------------------------------------------------| 
-------------------------------------------------------------| 
-------------------------------------------------------------| 
-0-0-000--0-000--0-000--0-000--2-2-222--2-222--2-222--2-222--| 
-0-0-000--0-000--0-000--0-000--2-2-222--2-222--2-222--2-222--| 
 * * ***  * ***  * ***  * ***  * * ***  * ***  * ***  * *** 
3      __                           __ 
      /  \                         /  \ 
-20-19-20-19---19----19-17----20-19-20-19---19----19-17------| 
------------20----19------17-------------20----19------17----| 
-------------------------------------------------------------| 
-------------------------------------------------------------| 
-------------------------------------------------------------| 
-------------------------------------------------------------|  
		  

See also:

tabs INXS - New Sensation tabs Men At Work - Overkill (bestt) tabs The Beautiful Girls - Morning Sun tabs Cold Chisel - Khe Sanh tabs INXS - Devil Inside tabs INXS - Never Tear us Apart
e-chords

Other versions:

tabs Pearl Jam - Sleight Of Hand tabs Parkway Drive - Sleight Of Hand
auto scroll beats size up size down change color hide chords drawings
tab show chords e-chords YouTube Clip e-chords hide all tabs e-chords go to top tab

share