Parkway Drive

Crushed

Parkway Drive

tabs

by  JOV-CORREA

save to print version add songbook text version e-mail correct tuner
chordsukulelecavacokeyboardtabbassdrumsharmonicaflute Guitar Pro
close

there isn't a video lesson for this song

chords

Crushed

Key:  B More
Crushed Key F#F#
Crushed Key GG
Crushed Key G#G#
Crushed Key AA(one step down)
Crushed Key A#A#(half step down)
Crushed Key BB(original key)
Crushed Key CC(half step up)
Crushed Key C#C#(one step up)
Crushed Key DD
Crushed Key D#D#
Crushed Key EE
Crushed Key FF
	  		Intro 

Guitar 1 
C#|--------------------------------------------------------| 
G#|--------------------------------------------------------| 
E |--------------------------------------------------------| 
B |--------------------------------------------------------| 
F#|---3-3-3---3-3---3-3-3---1-1-1-1-1-1-1-1----------------| 
B |---3-3-3---3-3---3-3-3---1-1-1-1-1-1-1-1----------------| 
      * * *   * *   * * *   * * * * * * * * 

Guitar 2 
C#|------|----------------------|                     -----------------------| 
G#|--10--|-9----------9---------|                     -9---------------------| 
E |------|---12-10-12---12------| x3 and then this    ---12-10-8-10-8-10-----| 
B |-Fade-|----------------------|                     -----------------------| 
F#|------|----------------------|                     -----------------------| 
B |------|----------------------|                     -----------------------| 

Guitar 1 
C#|-----------------------------------------| 
G#|-----------------------------------------| 
E |-----------------------------------------| 
B |-----------------------------------------| 
F#|---3-3-3---3-3---3-3-3-------------------| 
B |---3-3-3---3-3---3-3-3-------------------| 
      * * *   * *   * * *    

Guitar 2 
C#|------------------------|                      
G#|---9----------9---------|                      
E |-----12-10-12---12~-----|  
B |------------------------|                      
F#|------------------------|                      
B |------------------------|                      

Both 
C#|-----------------------------------------------------------------| 
G#|-----------------------------------------------------------------| 
E |-----------------------------------------------------------------| x4 
B |-----------------------------------------------------------------| 
F#|-----------------------------------------------------------------| 
B |--1-3--4-3--1-3--4-3--1-3--4-3--1-1-1-1-1-1-1-1------------------| 
                                   * * * * * * * * 

C#|------------------------| 
G#|------------------------| 
E |------------------------|  
B |----------4h5p4p1h3~----| 
F#|------------------------| 
B |--3-3-3-3---------------| 
     * * * * 
fill 

C#|---------14/13~---------------| 
G#|------------------------------| 
E |------------------------------|  
B |------------------------------| 
F#|------------------------------| 
B |------------------------------| 
      



Verse 
C#|--------------------------|       -------------------------------------| 
G#|--------------------------|       -------------------------------------| 
E |--------------------------|       -------------------------------------| x2 
B |--------------------------| x2    -------------------------------------| 
F#|--------------------------|       -------------------------------------| 
B |-1-3-3-1-4----1-3-3-1-4---|       --1-3-3-1-4--1-3-3-1-4--x-x-x-x------| 
                                     
C#|-----------------------------------------------------------------| 
G#|-----------------------------------------------------------------| 
E |-----------------------------------------------------------------|  
B |-----------------------------------------------------------------| 
F#|-----------------------------------------------------------------| 
B |-1-3-xxxx-1-3-xxxx-1-3-4-3----1-3-xxxx-1-3-xxxx--xxxx------------| 
                                    
C#|-----------------------------------------------------------------| 
G#|-----------------------------------------------------------------| 
E |-----------------------------------------------------------------|  
B |-----------------------------------------------------------------| 
F#|----------------------------3-3-3--------------------------------| 
B |-1-3-xx-4-3----1-3-x-x-4-3--3-3-3---1-3-4--4-3-1-----------------| 

C#|-------------------------------------------| 
G#|-------------------------------------------| 
E |-------------------------------------------|  
B |-------------------------------------------| 
F#|-3-3---3-1--4-3--3-3-----------------------| 
B |-3-3-x-3-1--4-3--3-3-x--x-x--x-x--x-x------| 

C#|--------------------------------------------| 
G#|--------------------------------------------| 
E |--------------------------------------------|  
B |--------------------------------------------| 
F#|-3-3-x-3-1--4-3--3-3-3----------------------| 
B |-3-3-x-3-1--4-3--3-3-3------x-x--x-x--------| 
Chorus 

C#|-----------------------------------------------------------------| 
G#|-----------------------------------------------------------------| 
E |-----------------------------------------------------------------| x4 
B |-----------------------------------------------------------------| 
F#|-----------------------------------------------------------------| 
B |--1-3--4-3--1-3--4-3--1-3--4-3--1-1-1-1-1-1-1-1------------------| 
                                   * * * * * * * * 
Verse 
C#|--------------------------|       -------------------------------------| 
G#|--------------------------|       -------------------------------------| 
E |--------------------------|       -------------------------------------| x2 
B |--------------------------| x2    -------------------------------------| 
F#|--------------------------|       -------------------------------------| 
B |-1-3-3-1-4----1-3-3-1-4---|       --1-3-3-1-4--1-3-3-1-4--x-x-x-x------| 




                                     
C#|-----------------------------------------------------------------| 
G#|-----------------------------------------------------------------| 
E |-----------------------------------------------------------------|  
B |-----------------------------------------------------------------| 
F#|-----------------------------------------------------------------| 
B |-1-3-xxxx-1-3-xxxx-1-3-4-3----1-3-xxxx-1-3-xxxx--xxxx------------| 


                                    
C#|-----------------------------------------------------------------| 
G#|-----------------------------------------------------------------| 
E |-----------------------------------------------------------------|  
B |-----------------------------------------------------------------| 
F#|----------------------------3-3-3--------------------------------| 
B |-1-3-xx-4-3----1-3-x-x-4-3--3-3-3---1-3-4--4-3-1-----------------| 

C#|-------------------------------------------| 
G#|-------------------------------------------| 
E |-------------------------------------------|  
B |-------------------------------------------| 
F#|-3-3---3-1--4-3--3-3-----------------------| 
B |-3-3-x-3-1--4-3--3-3-x--x-x--x-x--x-x------| 

C#|-----------------------------------------------| 
G#|-----------------------------------------------| 
E |-----------------------------------------------|  
B |-----------------------------------------------| 
F#|-3-3-x-3-1--4-3--3-3---3-3---------------------| 
B |-3-3-x-3-1--4-3--3-3---3-3-----x-x--x-x--------| 
Chorus 
Both 
C#|-----------------------------------------------------------------| 
G#|-----------------------------------------------------------------| 
E |-----------------------------------------------------------------| x2 
B |-----------------------------------------------------------------| 
F#|-----------------------------------------------------------------| 
B |--1-3--4-3--1-3--4-3--1-3--4-3--1-1-1-1-1-1-1-1------------------| 
                                   * * * * * * * * 

Guitar 1 
C#|------------------------|                     -----------------------| 
G#|---9----------9---------|                     -9---------------------| 
E |-----12-10-12---12------| x3 and then this    ---12-10-8-10-8-10-----| 
B |------------------------|                     -----------------------| 
F#|------------------------|                     -----------------------| 
B |------------------------|                     -----------------------| 

Guitar 2 
C#|-----------------------------------------------------------------| 
G#|-----------------------------------------------------------------| 
E |-----------------------------------------------------------------| x2 
B |-----------------------------------------------------------------| 
F#|-----------------------------------------------------------------| 
B |--1-3--4-3--1-3--4-3--1-3--4-3--1-1-1-1-1-1-1-1------------------| 
                                   * * * * * * * * 



Guitar 1 
C#|------------------------|                      
G#|---9----------9---------|                      
E |-----12-10-12---12~-----|  
B |------------------------|                      
F#|------------------------|                      
B |------------------------|                      


Bridge 
C#|--------------------------------------------------------------| 
G#|--------5-----------5--------------------5--------------------| 
E |--3-5-6---6-5-3-5-6---6-5-3-5-3-5--3-5-6---6-5-3-5-6~-5~------| x4 
B |--------------------------------------------------------------| 
F#|--------------------------------------------------------------| 
B |--------------------------------------------------------------| 
Guitar 1 
C#|--------------------------------------------------------| 
G#|--------------------------------------------------------| 
E |--------------------------------------------------------| 
B |--------------------------------------------------------| 
F#|---3-3-3---3-3---3-3-3---1-1-1-1-1-1-1-1----------------| 
B |---3-3-3---3-3---3-3-3---1-1-1-1-1-1-1-1----------------| 
      * * *   * *   * * *   * * * * * * * * 

Guitar 2 
C#|------------------------|                     -----------------------| 
G#|---9----------9---------|                     -9---------------------| 
E |-----12-10-12---12------| x3 and then this    ---12-10-8-10-8-10-----| 
B |------------------------|                     -----------------------| 
F#|------------------------|                     -----------------------| 
B |------------------------|                     -----------------------| 

Guitar 1 
C#|-----------------------------------------| 
G#|-----------------------------------------| 
E |-----------------------------------------| 
B |-----------------------------------------| 
F#|---3-3-3---3-3---3-3-3-------------------| 
B |---3-3-3---3-3---3-3-3-------------------| 
      * * *   * *   * * *    

Guitar 2 
C#|------------------------|                      
G#|---9----------9---------|                      
E |-----12-10-12---12~-----|  
B |------------------------|                      
F#|------------------------|                      
B |------------------------|                      

Coda  
C#|-----------------------------------------------------------------| 
G#|-----------------------------------------------------------------| 
E |-----------------------------------------------------------------| x2 
B |-----------------------------------------------------------------| 
F#|-----------------------------------------------------------------| 
B |--1-3--4-3--1-3--4-3--1-3--4-3--1-1-1-1-1-1-1-1------------------| 
                                   * * * * * * * * 

C#|-----------------------------------------------------------------| 
G#|-----------------------------------------------------------------| 
E |-----------------------------------------------------------------| x2 
B |-----------------------------------------------------------------| 
F#|-----------------------------------------------------------------| 
B |--1-33-4-33--1-33--4-33--1-33--4-33--1111111111111111------------| 
                                        **************** 
		  

See also:

tabs Colin Hay - I Just Don't Think I'll Ever Get Over You tabs The Beautiful Girls - Blackbird tabs Augie March - Asleep In Perfection tabs The Atlantics - Bombora tabs Men At Work - Overkill (bestt) tabs Hunters And Collectors - Holy Grail
e-chords

Other versions:

tabs Brian Jonestown Massacre - Crushed tabs Cocteau Twins - Crushed tabs Parkway Drive - Crushed
auto scroll beats size up size down change color hide chords drawings
tab show chords e-chords YouTube Clip e-chords hide all tabs e-chords go to top tab

share