Park Bo Young

My Prince

Park Bo Young

tabs Beginner beginner

by  RENEJUNIOR

save to print version add songbook text version e-mail correct tuner
chordsukulelecavacokeyboardtabbassdrumsharmonicaflute Guitar Pro
close

there isn't a video lesson for this song

chords

My Prince

	  		

e|----------0--|------------------------------------------------------| 
B|------2------|------------------------------------------------------| 
G|--------4----|------6---6--------6---6--------6---6--------6---6----| 
D|----2--------|----7---7---7----6---6---6----4---4---4----6---6---6--| 
A|--0----------|--0------------0------------0------------0------------| 
E|-------------|------------------------------------------------------| 

   
e|--------------------------------------------------------------------| 
B|--------------------------------3---3--------3---3--------3---3-----| 
G|------6---6--------6---6------2---2---2----1---1---1----2---2---2---| 
D|----7---7---7----6---6---6------------------------------------------| 
A|--0------------0------------2-------------------------2-------------| 
E|-----------------------------------------0--------------------------| 


e|--------------------------------------------------------------------| 
B|------3---3--------3---3--------3---3------3---3--------3---3-------| 
G|----2---2---2----1---1---1----1---1------1---1---1----1---1---1-----| 
D|--------------------------------------------------------------------| 
A|----------------------------2-----------------------2---------------| 
E|--2------------0-----------------------0----------------------------| 



e|---------------------------| 
B|------2---2----------------| 
G|----1---1---1---1---2---4--| 
D|---------------------------| 
A|--0------------------------| 
E|---------------0---2---4---| 


e|------------------------------------------------------| 
B|------------------------------------------------------| 
G|------6---6--------6---6--------6---6--------6---6----| 
D|----7---7---7----6---6---6----4---4---4----6---6---6--| 
A|--0------------0------------0------------0------------| 
E|------------------------------------------------------| 


e|---------------------0------------2------------2------------0-------| 
B|-------------------0---0--------3---3--------0---0--------3---3-----| 
G|-----------------4-------4----2-------2----4-------4----2-------2---| 
D|------6---6-----------------0------------0--------------------------| 
A|----7---7---7--4--------------------------------------2-------------| 
E|--0-----------------------------------------------------------------| 

e|-------------------0----------2-2--------0------------0-----------0-----| 
B|------3----------0---0--------2-2------3---3--------3---3-------0---0---| 
G|----2-2--------4-------4----2---2----2-------2----2-------2---2-------2-| 
D|------------------------------------------------------------------------| 
A|--2-----3-4--4---------------------2------------------------------------| 
E|--------------------------2---------------------1------------0----------| 

e|-------------------0--------0-| 
G|-----------------0-------0--0-| 
B|--1--2--4------6-------6----6-| 
D|-------------7-------7------7-| 
A|-----------0----------------0-| 
E|--0--2--4---------------------| 
		  

See also:

tabs 2NE1 - I Love You tabs IU - Someday tabs IU - Heart tabs Yiruma - Reason tabs Park Bo Young - Leave tabs 2NE1 - Lonely
e-chords

Other versions:

tabs Park Bo Young - My Prince
auto scroll beats size up size down change color hide chords drawings
tab show chords e-chords YouTube Clip e-chords hide all tabs e-chords go to top tab

share