Park Bo Young

Leave

Park Bo Young

tabs

by  ALYSLIMA

save to print version add songbook text version e-mail correct tuner
chordsukulelecavacokeyboardtabbassdrumsharmonicaflute Guitar Pro
close

there isn't a video lesson for this song

chords

Leave

Key:  F# More
Leave Key C#C#
Leave Key DD
Leave Key D#D#
Leave Key EE(one step down)
Leave Key FF(half step down)
Leave Key F#F#(original key)
Leave Key GG(half step up)
Leave Key G#G#(one step up)
Leave Key AA
Leave Key A#A#
Leave Key BB
Leave Key CC
	  		Intro 

F#|-------------|-------------|-------------|-------------| 
C#|-------0-----|-------0-----|-------0-----|-------0-----| 
A |------0------|------0------|------0------|------0------| 
E |----2--------|----2--------|----2--------|----2--------| 
B |-------------|-------------|-------------|-------------| 
F#|-------------|-------------|-------------|-------------| 

F#|-------------| 
C#|-------0-----| 4x 
A |------0------| 
E |-------------| 
B |-------------| 
F#|-3-----------| 

F#|-------------| 
C#|-------0-----| 5x 
A |------0------| 
E |---0---------| 
B |-------------| 
F#|-------------| 

F#|-------------| 
C#|-------1-----| 2x 
A |------0------| 
E |---0---------| 
B |-------------| 
F#|-------------| 

F#|-------------| 
C#|-------1-----| 2x 
A |------0------| 
E |---0---------| 
B |-------------| 
F#|-------------| 

F#|-------------| 
C#|-------1-----| 3x 
A |------0------| 
E |---0---------| 
B |-------------| 
F#|-------------| 

F#|-------------| 
C#|-------0-----| 2x 
A |------1------| 
E |---0---------| 
B |-------------| 
F#|-------------| 

F#|-------------| 
C#|-------0-----| 3x 
A |------0------| 
E |---0---------| 
B |-------------| 
F#|-------------| 

F#|-------------| 
C#|-------0-----|            2x 
A |------0------| 
E |---0---------| 
B |-------------| 
F#|-------------| 

F#|-------------| 
C#|-------3-----|           Play 5x 
A |------2------| 
E |---0---------| 
B |-------------| 
F#|-------------| 

F#|-1-----------------------| 
C#|-------------------------|           Play once 
A |-------------------------| 
E |-------------------------| 
B |-------------------------| 
F#|-------------------------| 

Solo 

F#|---------7/9-------| 
C#|-----9-------------| 
A |-----8-------------| 
E |-------------------| 
B |-------------------| 
F#|-------------------| 

It?s the sams throughout all the song so just play the rest except for the solo. Then, end here 

F#|----------0------| 
C#|-------0---------| 
A |------0----------| 
E |-----------------| 
B |-----------------| 
F#|-----------------| 


************************************ 

| /  Slide up 
   

************************************ 
		  

See also:

tabs 2NE1 - I Love You tabs IU - Someday tabs IU - Heart tabs Yiruma - Reason tabs Park Bo Young - Leave tabs 2NE1 - Lonely
e-chords

Other versions:

tabs Park Bo Young - Leave tabs Smile Empty Soul - Leave A Light On tabs Marble Sounds - Leave A Light On tabs Arctic Monkeys - Leave before the lights come on tabs Arctic Monkeys - Leave before the lights come on (intro) tabs Bombay Bicycle Club - Leave It
auto scroll beats size up size down change color hide chords drawings
tab show chords e-chords YouTube Clip e-chords hide all tabs e-chords go to top tab

share