Paramore

Misery Business (tablaturas)

Paramore

tabs Advanced advanced

by  LUCICAMARGO

save to print version add songbook text version e-mail correct tuner
chordsukulelecavacokeyboardtabbassdrumsharmonicaflute Guitar Pro
close

there isn't a video lesson for this song

chords

Misery Business (tablaturas)

	  		essa vai pro pessoal do youtube.. que pediram prap por a os solos 
e introduções de misery business - paramore 

(INTRO) 
e|----------------------------------------------------------------| 
B|----------------------------------------------------------------| 
G|----------------------------------------------------------------| 
D|--------7-9-7-9-7------------------7-9-7-9-7--------------------| 
A|-10-10-------------9-9-9-9--10-10-------------7-7--7-7----------| 
E|----------------------------------------------------------------| 

e|----------------------------------------------------------------| 
B|----------------------------------------------------------------| 
G|--------------------------------------------------------4/7-----| 
D|--------7-9-7-9-7------------------7-9-7-9-7-------5-7----------| 
A|-10-10-------------9-9-9-9--10-10--------------5-7--------------| 
E|----------------------------------------------------------------| 


(parte I ) Obs; saça abafando 

e|----------------------------------------------------------------| 
B|----------------------------------------------------------------| 
G|----------------------------------------------------------------| 
D|-------------------------------------------0-0-0-0-2-2-2-2------| 
A|------2-4-2-4-2-----------------2-4-2-4-2--0-0-0-0-2-2-2-2------| 
E|--4-4------------2-2--2-2--4-4----------------------------------| 

e|--------------------------------------------------------------------------| 
B|--------------------------------------------------------------------------| 
G|--------------------------------------------------------------------------| 
D|-------------------------------------------7-7-7-7/6-6-6/4-4-4-4-4-4-4-4--| 
A|------2-4-2-4-2-----------------2-4-2-4-2--7-7-7-7/6-6-6/4-4-4-4-4-4-4-4--| 
E|--4-4------------2-2--2-2--4-4--------------------------------------------| 

(Refrão) 

obs: as notas estão no youtube caso queiraum dar uma olhada vou deixar o link no final da pag. 
---------------------- 

 (solo) 

e|----------------------------------------------------------------| 
B|----------------------------------------------------------------| 
G|----------------------------------------------------------------| 
D|--------7-9-7-9-7------------------7-9-7-9-7--------------------| 
A|-10-10-------------9-9-9-9--10-10-------------7-7--7-7----------| 
E|----------------------------------------------------------------| 

(retorna a musica) II parte 

e|----------------------------------------------------------------| 
B|----------------------------------------------------------------| 
G|----------------------------------------------------------------| 
D|-------------------------------------------0-0-0-0-2-2-2-2------| 
A|------2-4-2-4-2-----------------2-4-2-4-2--0-0-0-0-2-2-2-2------| 
E|--4-4------------2-2--2-2--4-4----------------------------------| 

e|--------------------------------------------------------------------------| 
B|--------------------------------------------------------------------------| 
G|--------------------------------------------------------------------------| 
D|-------------------------------------------7-7-7-7/6-6-6/4-4-4-4-4-4-4-4--| 
A|------2-4-2-4-2-----------------2-4-2-4-2--7-7-7-7/6-6-6/4-4-4-4-4-4-4-4--| 
E|--4-4------------2-2--2-2--4-4--------------------------------------------| 

(Refrãoo) após o Refrão e pré Refrão.. 

solo ( o solo que ninguem conseguio pegar.. vai estar aki só uma parte.. 
pois são duas notas a oitava e depois esse solo o pessoal q quiser vê a nota no video! 

e|-------------------------------------------------------| 
B|-------------------------------------------------------| 
G|-------------------------------------------------------| 
D|-12-12-12-12-11-11-11-11-11----------------------------| 
A|-------------------------------------------------------| 
E|-------------------------------------------------------| 

depois faz as duas notas seguida da segunda parte do solo 

e|-------------------------------------------------------| 
B|-------------------------------------------------------------------------------------------------------------------------------------10-10-10-10-12-12-14-14-9-9-9-9~-| 
G|----------------------------9-9-9-9-9-9-9---------------------------------------------------------9-9-9-9-9-9-9-11-11-11-11-11-11-11----------------------------------| 
D|-12-12-12-12-11-11-11-11-11---------------12-12-12-12-12-12-12-11-11-11-11-11-11-11-9-9-9-9-9-9-9---------------------------------------------------------------------| 
A|----------------------------------------------------------------------------------------------------------------------------------------------------------------------| 
E|----------------------------------------------------------------------------------------------------------------------------------------------------------------------| 

logo após vem o Refrão e o solo 

e|----------------------------------------------------------------| 
B|----------------------------------------------------------------| 
G|----------------------------------------------------------------| 
D|--------7-9-7-9-7------------------7-9-7-9-7--------------------| 
A|-10-10-------------9-9-9-9--10-10-------------7-7--7-7----------| 
E|----------------------------------------------------------------| 
		  

See also:

tabs Red Hot Chili Peppers - Dosed tabs Red Hot Chili Peppers - Otherside (intro) tabs Red Hot Chili Peppers - Around The World (ver. 2) tabs Alesana - Apology tabs Red Hot Chili Peppers - Scar Tissue tabs Red Hot Chili Peppers - Dani California (ver.2)
e-chords

Other versions:

tabs Paramore - Misery Business tabs Paramore - Misery Business (tablaturas) tabs Paramore - Misery Business-the Final Riot!
auto scroll beats size up size down change color hide chords drawings
tab show chords e-chords YouTube Clip e-chords hide all tabs e-chords go to top tab

share