Paramore

Crushcrushcrush

Paramore

tabs Beginner beginner

by  BASSLUVR

save to print version add songbook text version e-mail correct tuner
chordsukulelecavacokeyboardtabbassdrumsharmonicaflute Guitar Pro
close
crush-crush-crush-by-paramore

there is a video lesson for this song

chords

Crushcrushcrush

Year: 2007 - Album: Riot!

	  		Intro 
G|-------------| 
D|-------------| 
A|-222---------| 
E|-------------| 

Verse 
G|---------------------------------------| 
D|--------22222222-----------------------| 
A|44444444--------22222222-44444-2---2---| 
E|---------------------------------4-----| 

Verse (repeated)  
G|---------------------------------------| 
D|--------22222222-----------------------| 
A|44444444--------22222222222222222------| 
E|---------------------------------------| 

Verse 2 
G|--------------------------------------------------------------------------------| 
D|--------------------------------------------------------------------------------| 
A|--------4~--4-6-7-6-4-----------------------------------------------------------| 
E|5~--7~----------------7---5-5-5-5-7-7-7-7-9-9-9-9-7-99-7-999-97--55-55-5-444-4-4| 

Pre-Chorus "Crush..." 
G|---------------| 
D|---------------| 
A|-4~----4~------| 
E|---------------| 

Chorus 
G|---------------------------------------------| 
D|---------------------------------------------| 
A|-44-77--------44---44-77---------------------| 
E|-------7---55----7-------7~--55555555-77777--| 

Pre-verse 
G|------------------------------------| 
D|------------------------------------| 
A|-4-4-4-2-2-2-2-2-4-4-4-2-2-2-444----| 
E|------------------------------------| 

Verse  
Verse (repeated)  
Verse 2 
Pre-Chorus  
Chorus 

Bridge "rock and roll." 
G|-----------------| 
D|-----------------| 
A|-4--7------------| 
E|------7--55-5----| x4 

G|---------------------------------------------------------------| 
D|---------------------------------------------------------------| 
A|------------------------------------44-77----------------------| 
E|999-000-77777777-555-000-7777-8888--------7~--55555555-7777777-|						        easier 

Chorus x1 

Outro 
G|-------------------------------------------------------| 
D|-------------------------------------------------------| 
A|-------------------------------------------------------| 
E|99999999-88888888-77777797-66666666-55555555-77777777-9| 


		  

See also:

tabs Hale - Blue Sky tabs No Doubt - don't speak solo tabs Red Hot Chili Peppers - Tell Me Baby tabs Red Hot Chili Peppers - Fortune Faded tabs Audioslave - I Am the Highway tabs Red Hot Chili Peppers - Road Trippin'
e-chords

Other versions:

tabs Paramore - Crushcrushcrush tabs Paramore - Crushcrushcrush (Acoustic) tabs Paramore - Crushcrushcrush (Live) tabs Paramore - Crushcrushcrush-the Final Riot!
auto scroll beats size up size down change color hide chords drawings
tab show chords e-chords YouTube Clip e-chords hide all tabs e-chords go to top tab

share