Paradise Fears

Waste Of Time

Paradise Fears

tabs

by  ABELAMIN

save to print version add songbook text version e-mail correct tuner
chordsukulelecavacokeyboardtabbassdrumsharmonicaflute Guitar Pro
close

there isn't a video lesson for this song

chords

Waste Of Time

	  		

Chords: 
       E       A    B 
D|-----0=------0----0-----------------------------------------------------------| 
A|-----0-------0----0-----------------------------------------------------------| 
F|-----1-------2----4-----------------------------------------------------------| 
C|-----2-------2----4-----------------------------------------------------------| 
G|-----2-------0----2-----------------------------------------------------------| 
D|-----0-------0----0-----------------------------------------------------------| 

Intro: 
D|---------------------------------------------------------------------------| 
A|---------------------------------------------------------------------------| 
F|---------------------------------------------------------------------------| 
C|---------------------------------------------------------------------------|x4 
G|2--x--6--7--x--7--9--777--7--7--6--2---------------------------------------| 
D|0--x--4--5--x--5--7--999--9--5--4--0---------------------------------------| 

First Verse 
D|---------------------------------------------------------------------------| 
A|---------------------------------------------------------------------------| 
F|---------------------------------------------------------------------------| 
C|---------------------------------------------------------------------------|Palm Mute 
G|2--x--6--7--x--7--9--777--7--7--6--2---9 on the second time, no palm mute|x4 
D|0--x--4--5--x--5--7--999--9--5--4--0---7 on the second time, no palm mute| 

Pre-Chorus 
       E       A    B    A 
D|-----0=------0----0----0-------------------------------------------------------| 
A|-----0-------0----0----0-------------------------------------------------------| 
F|-----1-------2----4----2-------------------------------------------------------| 
C|-----2-------2----4----2-------------------------------------------------------|Repeat until Chorus 
G|-----2-------0----2----0-------------------------------------------------------| 
D|-----0-------0----0----0-------------------------------------------------------| 

Chorus 
       E       A     
D|-----0=------0---------------------------------------------------------------| 
A|-----0-------0---------------------------------------------------------------| 
F|-----1-------2---------------------------------------------------------------| 
C|-----2-------2---------------------------------------------------------------| 
G|-----2-------0---------------------------------------------------------------| 
D|-----0-------0---------------------------------------------------------------| 

Part After Chorus ("Trying to make this right") 
D|----x----------x-----0--------------------------------------------------------| 
A|----x----------x-----0--------------------------------------------------------| 
F|----2----------4-----2--------------------------------------------------------| 
C|----4---Slide--6-----2--------------------------------------------------------| 
G|----4----------6-----0--------------------------------------------------------| 
D|----x----------x-----0--------------------------------------------------------| 

       E       A    B    A 
D|-----0=------0----0----0-------------------------------------------------------| 
A|-----0-------0----0----0-------------------------------------------------------| 
F|-----1-------2----4----2-------------------------------------------------------| 
C|-----2-------2----4----2-------------------------------------------------------| 
G|-----2-------0----2----0-------------------------------------------------------| 
D|-----0-------0----0----0-------------------------------------------------------| 

2nd Verse ("Hey little Princess..") 
D|---------------------------------------------------------------------------| 
A|---------------------------------------------------------------------------| 
F|---------------------------------------------------------------------------| 
C|---------------------------------------------------------------------------| 
G|2--x--6--7--x--7--9--777--7--7--6--2---------------------------------------| 
D|0--x--4--5--x--5--7--999--9--5--4--0---------------------------------------| 

Pre-Chorus 
Chorus 
After Chorus 

Little Solo 
D|----x----x---x----------------------------------------------------------------| 
A|----x----x---x----------------------------------------------------------------| 
F|----9----7---2----------------------------------------------------------------| 
C|----9----7---2----------------------------------------------------------------| 
G|----7----5---0----------------------------------------------------------------| 
D|----x----x---x----------------------------------------------------------------| 

And the rest you piece together good luck and thanks for looking at my very first tab. 
If it doesn't sound anywhere close, please don't be rude 
Hope this helped :) 
		  

Full key step upFull key step up
Half key step upHalf key step up
Half key step downHalf key step down
Full key step downFull key step down
hide glossary

See also:

tabs The Offspring - The Kids Aren't Alright tabs Van Halen - Jump tabs R.E.M. - Everybody Hurts tabs Blue Oyster Cult - Dont Fear The Reaper tabs Guns N' Roses - Knockin' On Heaven's Door tabs Foo Fighters - Everlong (acústico)
e-chords

Other versions:

tabs Paradise Fears - Waste Of Time
auto scroll beats size up size down change color hide chords drawings
tab show chords e-chords YouTube Clip e-chords hide all tabs e-chords go to top tab

share