Papa Roach

home > Papa Roach

Whats Left Of Me Tab

Papa Roach

Difficulty: nolevelnolevel

by renejunior

tuner correct add songbook print version text version save to e-mail
chordsukulelecavacokeyboardtabbassdrumsharmonicsflute Guitar Pro
chords

Whats Left Of Me

  		I'm not 100 percent sure this is fully correct but it is what i could figure out by ear.  
Correct me if im wrong on any parts.here. 

Intro (0:00-0:10) 
e---------------------------------------------------------------------------------| 
B---------------------------------------------------------------------------------| 
G---------------------------------------------------------------------------------| 
d--0---0-0---0-0---0---0-0---0-0---3---3-3---3-3---7---7-7---8-7-5----------------| 
A--0---0-0---0-0---0---0-0---0-0---3---3-3---3-3---7---7-7---8-7-5----------------| 
D--0---0-0---0-0---0---0-0---0-0---3---3-3---3-3---7---7-7---8-7-5----------------| 

e---------------------------------------------------------------------------------| 
B---------------------------------------------------------------------------------| 
G---------------------------------------------------------------------------------| 
d--0---0-0---0-0---0---0-0---0-0---8---8-8---8-8---7---7-7---8-7-5----------------| 
A--0---0-0---0-0---0---0-0---0-0---8---8-8---8-8---7---7-7---8-7-5----------------| 
D--0---0-0---0-0---0---0-0---0-0---8---8-8---8-8---7---7-7---8-7-5----------------| 


Verse (0:11-0:41) 
e----------------------------------------------------------------------------------| 
B----------------------------------------------------------------------------------| 
G------------------7-5-----------------7-5-----------------------------------------| 
d----------7---------------8-7-------------8---------5-5-8-------------------------|  x4 
A--5-5-5-5---5-5-5-----5-5-----5-5-5-5-------5-5-5-5-------------------------------| 
D----------------------------------------------------------------------------------| 
   m m m m   m m m     m m     m m m m       m m m m 

e----------------------------------------------------------------------------------| 
B----------------------------------------------------------------------------------| 
G----------------------------------------------------------------------------------| 
d---12---10---0----------8---10---12-----------------------------------------------| 
A---12---10---0----------8---10---12-----------------------------------------------| 
D---12---10---0----------8---10---12-----------------------------------------------| 

Chorus (0:43-1:02) 
e---------------------------------------------------------------------------------| 
B---------------------------------------------------------------------------------| 
G---------------------------------------------------------------------------------| 
d--0---0-0---0-0---0---0-0---0-0---3---3-3---3-3---7---7-7---8-7-5----------------| 
A--0---0-0---0-0---0---0-0---0-0---3---3-3---3-3---7---7-7---8-7-5----------------| 
D--0---0-0---0-0---0---0-0---0-0---3---3-3---3-3---7---7-7---8-7-5----------------| 

e---------------------------------------------------------------------------------| 
B---------------------------------------------------------------------------------| 
G---------------------------------------------------------------------------------| 
d--0---0-0---0-0---0---0-0---0-0---8---8-8---8-8---7---7-7---7-7-7----------------| 
A--0---0-0---0-0---0---0-0---0-0---8---8-8---8-8---7---7-7---7-7-7----------------| 
D--0---0-0---0-0---0---0-0---0-0---8---8-8---8-8---7---7-7---7-7-7----------------| 

e----------------------------------------------------------------------------------| 
B----------------------------------------------------------------------------------|not too sure about 
G----------------------------------------------------------------------------------|this part 
d--0---0---0---0---8---8---5---5---0---0---0---0---8---8---7-----------------------| 
A--0---0---0---0---8---8---5---5---0---0---0---0---8---8---7-----------------------| 
D--0---0---0---0---8---8---5---5---0---0---0---0---8---8---7-----------------------| 

Verse (1:03-1:39) 
e----------------------------------------------------------------------------------| 
B----------------------------------------------------------------------------------| 
G------------------7-5-----------------7-5-----------------------------------------| 
d----------7---------------8-7-------------8---------5-5-8-------------------------|  x5 
A--5-5-5-5---5-5-5-----5-5-----5-5-5-5-------5-5-5-5-------------------------------| 
D----------------------------------------------------------------------------------| 
   m m m m   m m m     m m     m m m m       m m m m 

e----------------------------------------------------------------------------------| 
B----------------------------------------------------------------------------------| 
G----------------------------------------------------------------------------------| 
d---12---10---0----------8---10---12-----------------------------------------------| 
A---12---10---0----------8---10---12-----------------------------------------------| 
D---12---10---0----------8---10---12-----------------------------------------------| 

Chorus (1:40-2:02) 
e---------------------------------------------------------------------------------| 
B---------------------------------------------------------------------------------| 
G---------------------------------------------------------------------------------| 
d--0---0-0---0-0---0---0-0---0-0---3---3-3---3-3---7---7-7---8-7-5----------------| 
A--0---0-0---0-0---0---0-0---0-0---3---3-3---3-3---7---7-7---8-7-5----------------| 
D--0---0-0---0-0---0---0-0---0-0---3---3-3---3-3---7---7-7---8-7-5----------------| 

e---------------------------------------------------------------------------------| 
B---------------------------------------------------------------------------------| 
G---------------------------------------------------------------------------------| 
d--0---0-0---0-0---0---0-0---0-0---8---8-8---8-8---7---7-7---7-7-7----------------| 
A--0---0-0---0-0---0---0-0---0-0---8---8-8---8-8---7---7-7---7-7-7----------------| 
D--0---0-0---0-0---0---0-0---0-0---8---8-8---8-8---7---7-7---7-7-7----------------| 

e----------------------------------------------------------------------------------| 
B----------------------------------------------------------------------------------|not too sure about 
G----------------------------------------------------------------------------------|this part 
d--0---0---0---0---8---8---5---5---0---0---0---0---8---8---7-----------------------| 
A--0---0---0---0---8---8---5---5---0---0---0---0---8---8---7-----------------------| 
D--0---0---0---0---8---8---5---5---0---0---0---0---8---8---7-----------------------| 

Bridge (2:03-2:23) 
not too sure about this part 


Chorus 
	  

Search Paypal
auto scroll beats size up size down change color hide chords drawings
tab show chords e-chords YouTube Clip e-chords hide all tabs e-chords go to top tab