Papa Roach

home > Papa Roach

Leader Of The Broken Hearts Tab

Papa Roach

Difficulty: EasyEasy

by terr%5Fschmitz

tuner correct add songbook print version text version save to e-mail
chordsukulelecavacokeyboardtabbassdrumsharmonicsflute Guitar Pro
chords

Leader Of The Broken Hearts

  		 


e|-------------------------------------------| 
B|-------------------------------------------| 
G|-------------------------------------------|      Repeat This X2 
D|-------------------------------------------| 
A|----6-6-6-6-6---4-4-4-4-4-4---2-2-2-2-2-2--|       
D|-------------------------------------------| 



...Crawling in my skin  

    
e|----------------------------------6---6----6---6--------------------| 
B|----7---7---7--7--7---6---6--6---------------------7---7---7---7----| 
G|-----8---8---8---8--9---8---8--8----8----8---8---8---8---8---8---8--| 
D|--------------------------------------------------------------------| 
A|--------------------------------------------------------------------| 
D|--------------------------------------------------------------------| 

Continue in :  

e|-----------------------------------------------------------------| 
B|-7--7--7--7----6--6--6--6----12---12--12--12---11---11---9---9---| 
G|---8--8--8--8----8--8--8--8----11--11---11--11---11---11--11--11-| 
D|-----------------------------------------------------------------| 
A|-----------------------------------------------------------------| 
D|-----------------------------------------------------------------| 


Chours : 

And Now.. 

e|-----------------------------------------------------------| 
B|-----------------------------------------------------------| 
G|-----------------------------------------------------------| 
D|----4---------8-8-8-8---9---------1------8-8-8-8----9------| 
A|----4--x6-----8-8-8-8---9--x6-----1--x6--8-8-8-8----9--x6--| 
D|----4---------8-8-8-8---9---------1------8-8-8-8----9------| 


.-----Realize..Right....Alive 

e|---------------------------------------| 
B|---------------------------------------| 
G|----4--------6--------8----------------| 
D|----4--x6----6--x6----8-let-it-ring----| 
A|----2--------4--------6----------------| 
D|---------------------------------------| 


e|-------------------------------------------| 
B|-------------------------------------------| 
G|-------------------------------------------|      Repeat This X2 
D|-------------------------------------------| 
A|----6-6-6-6-6---4-4-4-4-4-4---2-2-2-2-2-2--|       
D|-------------------------------------------| 



...Crawling in my skin 

e|----------------------------------6---6----6---6--------------------| 
B|----7---7---7--7--7---6---6--6---------------------7---7---7---7----| 
G|-----8---8---8---8--9---8---8--8----8----8---8---8---8---8---8---8--| 
D|--------------------------------------------------------------------| 
A|--------------------------------------------------------------------| 
D|--------------------------------------------------------------------| 

Continue in :  

e|-----------------------------------------------------------------| 
B|-7--7--7--7----6--6--6--6----12---12--12--12---11---11---9---9---| 
G|---8--8--8--8----8--8--8--8----11--11---11--11---11---11--11--11-| 
D|-----------------------------------------------------------------| 
A|-----------------------------------------------------------------| 
D|-----------------------------------------------------------------| 

    




2nd Chours : 


e|-----------------------------------------------------------| 
B|-----------------------------------------------------------| 
G|-----------------------------------------------------------| 
D|----4---------8-8-8-8---9---------1------8-8-8-8----9------| 
A|----4--x6-----8-8-8-8---9--x6-----1--x6--8-8-8-8----9--x6--| 
D|----4---------8-8-8-8---9---------1------8-8-8-8----9------| 


      Realiz...Like... 
e|-----------------------------------------------------------| 
B|-----------------------------------------------------------| 
G|-----------------------------------------------------------| 
D|----4---------8-8-8-8---9---------1------8-8-8-8----9------| 
A|----4--x6-----8-8-8-8---9--x6-----1--x6--8-8-8-8----9--x6--| 
D|----4---------8-8-8-8---9---------1------8-8-8-8----9------| 



.....Realize..Right....Alive 

e|---------------------------------------| 
B|---------------------------------------| 
G|----4--------6--------8----------------| 
D|----4--x6----6--x6----8-let-it-ring----| 
A|----2--------4--------6----------------| 
D|---------------------------------------| 



Bridge ( I'm The Leader Of The Broken Heart..) 

Basicly you can do this palm mute :  



e|-----------------------------------| 
B|-----------------------------------| 
G|-----------------------------------| 
D|-----------------------------------| 
A|-----------------------------------| 
D|----1-1---1-1-1-1---1-1---1-1-1-1--| 


I Like To  Add  This : 
  
......I'm The Leader Of The  Broken Hearts.  
e|------------------------------------------| 
B|----11--9--11---9--11---9-----------------| 
G|---------------------------11-----9b11--8-| 
D|------------------------------------------| 
A|------------------------------------------| 
D|------------------------------------------| 


Then Do This : 

......I'm.......Brkoen....Hearts... 
e|-----------------------------------------------------------| 
B|-----------------------------------------------------------| 
G|-----------------------------------------------------------| 
D|----4---------8-8-8-8---9---------1------8-8-8-8----9------| 
A|----4--x6-----8-8-8-8---9--x6-----1--x6--8-8-8-8----9--x6--| 
D|----4---------8-8-8-8---9---------1------8-8-8-8----9------| 


Then Do The Chours again 2 times. 
	  

Search Paypal
auto scroll beats size up size down change color hide chords drawings
tab show chords e-chords YouTube Clip e-chords hide all tabs e-chords go to top tab