Papa Roach

home > Papa Roach

Last resort (ver.3) Tab

Papa Roach

Difficulty: nolevelnolevel

by Corral+Urias

tuner correct add songbook print version text version save to e-mail
chordsukulelecavacokeyboardtabbassdrumsharmonicsflute Guitar Pro
chords

Last resort (ver.3)

  		Papa roach 
last resort 
[email protected] 
 
 
 
G|------------------------------------------------------------| 
D|------------------------------------------------------------| 
A|------------------------------------------------------------| 
E|------------------------------------------------------------| 
B|---------5-5----------3-3-------1-1---------0-0--------3-3--| 
 
G|----------------------------------------------------------------------------------------------| 
D|----------------------------------------------------------------------------------------------| 
A|--------------------------------------------------------------------------------------------5-| 
E|----------------------------------------------------------------------------------------------| 
B|--5-5--------3-3--------1-1--------0-0------3-3------5-5------3-3------1-1------0-0-----3-3---| 
 
G|-----------------------------------------------| 
D|-----------------------------------------------| 
A|--------------------------5------------5-------| 
E|-----------------------------------------------| 
B|--5-5--------------5--3--------3--3---------3- 
 
G|--------------------------------------------------| 
D|--------------------------------------------------| 
A|--------------------------------------------------| 
E|--------------------------------------------------| 
B|-5-5--------3-3--------1-1--------0-0-0-0-3-3-3-3-| 
 
G|----------------------------------------------------------------------------------------------| 
D|----------------------------------------------------------------------------------------------| 
A|------------------------3--3--3--3--3--3--3--3------------------------------------------------| 
E|----------------------------------------------------------------------------------------------| 
B|-5--5--5--5--5--5--5--5------------------------3--3--3--3--3--3--3--3--3--3--3--3--3--3--3--3-| 
 
G|----------------------------------------------------------------------------------------------| 
D|----------------------------------------------------------------------------------------------| 
A|-----------------------3--3--3--3--3--3--3--3-------------------------------------------------| 
E|----------------------------------------------------------------------------------------------| 
B|-5--5--5--5--5--5--5--5-------------------------1--3--3--3--3--3--3--3--3--3--3--3--3--3--0--3| 
 
G|----------------------------------------------------------------------------------------------| 
D|----------------------------------------------------------------------------------------------| 
A|---------------3--3--3--3--3--3--3--3---------------------------------------------------------| 
E|--------------------------------------------------------------/10--10--10--10--10--10--8--10--| 
B|-5-5-5-5-5-5-5-------------------------1--3--3--3--3--3--3--3---------------------------------| 
 
Bridge (1:29 e 2:33) 
G|-----------------------------------------------------------------------------| 
D|-----------------------------------------------------------------------------| 
A|---------------------------------------------------------5----------------5--| 
E|-12-12-12-12-12-12-12-10-8-8-8-8-8-8-8-10--3-3-3-3-3-3-3----7-7-7-7-7-7-7----| 
B|-----------------------------------------------------------------------------| 
 
G|-------------------------------------------------------------------| 
D|-------------------------------------------------------------------| 
A|-7-7-7-7-7-7-7-5-3-3-3-3-3-3-3-5----------------5------------------| 
E|----------------------------------3-3-3-3-3-3-3----7-7-7-7-7-7-7-7-| 
B|-------------------------------------------------------------------| 
 
G|-------------------------------------------------------------------------| 
D|-------------------------------------------------------------------------| 
A|-7-7-7-7-7-7-7-7---------------------3-3-3-3-3-3-3-3-----------5-5----5--| 
E|-------------------3-3-3-3-3-3-3-3----------------------7-7-7-------7----| 
B|-------------------------------------------------------------------------| 
 
G|-------------------------------------------------------------------------| 
D|-------------------------------------------------------------------------| 
A|-7-7-7-7-7-7-7-7---------------------3-3-3-3-3-3-3-3-----------5---------| 
E|-------------------3-3-3-3-3-3-3-3----------------------7-7-7------------| 
B|---------------------------------------------------------------------0--- 
 
G|------------------------------------------------------| 
D|------------------------------------------------------| 
A|--------------------------------------------------5---| 
E|------------------------------------------------------| 
B|-5-5----------3-3-----------1-1---------0-0-0-0-3---3-| 
 
G|---------------------------------|------------------|-----------------------------------| 
D|---------------------------------|------------------|-----------------------------------| 
A|-7-7-7-7-7-7-7-5-3-3-3-3-3-3-3-3-|------------------|--------------------3--3-3-3-3-3-3-| 
E|---------------------------------|------------------|-----------------------------------| 
B|---------------------------------|--3-3-3-3-3-3-3-3-|-5---5----5-5-5-5------------------| 
 
G|----------------------------------------------------------------------------------------------| 
D-----------------------------------------------------------------------------------------------| 
A|-5-5-5-5-5-5-5-5-5-5--------------3-3-3-3-3-3-3-3---------------------------------------------| 
E|---------------------------------------------------------------/10-10-10---------/10-10-10-10-| 
B|-------------------5-5-5-5-5-5-5-5---------------3-3-3-3-----------------0-3-3-3--------------| 
 
G|--------------------------------------------------------------------------------------------| 
D|--------------------------------------------------------------------------------------------| 
A|-----------------3-3-3-3-3-3-3--------------------------------------------------------------| 
E|--------------------------------------------------------------------------------------------| 
B|-5-5-5-5-5-5-5-5---------------0--3-3-3-3-3-3-3-3-3-3-3-3-3-3-3-3-3-5-5-5-5-5-5-5-5-5-5-5-5-| 
 

	  

Search Paypal
auto scroll beats size up size down change color hide chords drawings
tab show chords e-chords YouTube Clip e-chords hide all tabs e-chords go to top tab