Papa Roach

home > Papa Roach

Hollywood Whore Tab

Papa Roach

Difficulty: BeginnerBeginner

by jessgomes

tuner correct add songbook print version text version save to e-mail
chordsukulelecavacokeyboardtabbassdrumsharmonicsflute Guitar Pro
chords

Hollywood Whore

Year: 2008 -

  		Intro: 
E |-------------|------------|------------|------------|------------| 
B |----------8--|-------6----|--------6---|-----6------|-----8------| 
G |-----8-------|---8--------|----8-------|---8---8----|---7---7----| 
D |--10---10----|-9---9------|--8---8-----|-6----------|-5----------| 
A |-------------|------------|------------|------------|------------| 
E |-------------|------------|------------|------------|------------| 

   0:10 
E |----------------------------------------|---------------------------------------| 
B |----------------------------------------|---------------------------------------| 
G |-5-5---5-5-5-5-5-5-5-7-8-7-8-5-7-8-7----|-4-4--4-4-4-4-4-4-4-5-7-5-7-4-5-7-5-7--| 
D |-5-5------------------------------------|-4-4-----------------------------------|   x2 
A |-3-3------------------------------------|-2-2-----------------------------------| 
E |-3-3------------------------------------|-2-2-----------------------------------| 
     0:20 
E |--------------------------------------------| 
B |--------------------------------------------| 
G |---5-5------4-4-----------------------------|   x4 
D |---5-5------4-4-----------------------------| 
A |---3-3------2-2-----------------------------| 
E |---3-3------2-2-----------------------------| 
   0:40 
E |----------------------------|----------------------------| 
B |----------------------------|----------------------------| 
G |----------------------------|----------------------------| 
D |----6-6--------6-6----------|---5-5----------------------| 
A |----6-6---11b--6-6---10b----|---5-5---5-5-5-5-6-5--------| 
E |----4-4--------4-4----------|---3-3----------------------| 
 Refrão: 
  0:45 
        C#  *     G#   *      Ab  *     F  -  G 
E |--------|-----------|----------|-------------------------|     * : varias vezes 
B |--------|-----------|----------|-------------------------| 
G |--5-----|---4-------|----------|---2-----4---------------| 
D |--5-----|---5-------|---6------|---3-----5---------------| 
A |--3-----|---5-------|---6------|---3-----5---------------| 
E |--3-----|---3-------|---4------|---1-----3---------------| 
     1:07 
E |----------------------------------------|---------------------------------------| 
B |----------------------------------------|---------------------------------------| 
G |-5-5---5-5-5-5-5-5-5-7-8-7-8-5-7-8-7----|-4-4--4-4-4-4-4-4-4-5-7-5-7-4-5-7-5-7--| 
D |-5-5------------------------------------|-4-4-----------------------------------|   x2 
A |-3-3------------------------------------|-2-2-----------------------------------| 
E |-3-3------------------------------------|-2-2-----------------------------------| 

   1:17 
E |--------------------------------------------| 
B |--------------------------------------------| 
G |---5-5------4-4-----------------------------|   x4 
D |---5-5------4-4-----------------------------| 
A |---3-3------2-2-----------------------------| 
E |---3-3------2-2-----------------------------| 
    1:38 
E |----------------------------|----------------------------| 
B |----------------------------|----------------------------| 
G |----------------------------|----------------------------| 
D |----6-6--------6-6----------|---5-5----------------------| 
A |----6-6---11b--6-6---10b----|---5-5---5-5-5-5-6-5--------| 
E |----4-4--------4-4----------|---3-3----------------------| 

1:42 
       C#  *     G#   *      Ab  *     F  -  G 
E |--------|-----------|----------|-------------------------|     * : varias vezes 
B |--------|-----------|----------|-------------------------| 
G |--5-----|---4-------|----------|---2-----4---------------| 
D |--5-----|---5-------|---6------|---3-----5---------------| 
A |--3-----|---5-------|---6------|---3-----5---------------| 
E |--3-----|---3-------|---4------|---1-----3---------------| 

   2:04C - Eb  x2    Ab - C -Ab        C - Bb - Ab - F - G ----C 
E |--------------|--------------|---------------------------------| 
B |--------------|--------------|---------------------------------| 
G |--------------|--------5*----|---------------------------------| 
D |--8*----------|--------3-----|---5*---3*-----------------------| 
A |--6---5*------|----6*-----6*-|---3----1---6*----5---3----5-----| 
E |------3-------|----4------4--|------------4-----3---1----3-----| 

2:30 
E |-------------|------------|------------|------------|------------| 
B |----------8--|-------6----|--------6---|-----6------|-----8------| 
G |-----8-------|---8--------|----8-------|---8---8----|---7---7----|  x2 
D |--10---10----|-9---9------|--8---8-----|-6----------|-5----------| 
A |-------------|------------|------------|------------|------------| 
E |-------------|------------|------------|------------|------------| 

2:50 
E |---------------------|------------------|------------------| 
B |----------8------8---|-------6-----6----|--------6----6----| 
G |-----8------8------8-|---8-----8-----8--|----8-----8----8--| 
D |--10---10-----10-----|-9---9-----9------|--8---8-----8-----| 
E |---------------------|------------------|------------------|| 

3:00 

       C#  *     G#   *      Ab  *     F  -  G 
E |--------|-----------|----------|-------------------------|     * : varias vezes 
B |--------|-----------|----------|-------------------------| 
G |--5-----|---4-------|----------|---2-----4---------------| 
D |--5-----|---5-------|---6------|---3-----5---------------| 
A |--3-----|---5-------|---6------|---3-----5---------------| 
E |--3-----|---3-------|---4------|---1-----3---------------| 

  3:41 
E |----------------------------------------|---------------------------------------------| 
B |----------------------------------------|---------------------------------------------| 
G |-5-5---5-5-5-5-5-5-5-7-8-7-8-5-7-8-7----|-4-4--4-4-4-4-4-4-4-5-7-5-7-4-5-7-5-7----5-5-| 
D |-5-5------------------------------------|-4-4-------------------------------------5-5-|   x2 
A |-3-3------------------------------------|-2-2-------------------------------------3-3-| 
E |-3-3------------------------------------|-2-2-------------------------------------3-3-|. 
	  

Full key step upFull key step up
Half key step upHalf key step up
Half key step downHalf key step down
Full key step downFull key step down
Search Paypal
auto scroll beats size up size down change color hide chords drawings
tab show chords e-chords YouTube Clip e-chords hide all tabs e-chords go to top tab