Papa Roach

home > Papa Roach

Blood Brothers Tab

Papa Roach

Difficulty: ExpertExpert

tuner correct add songbook print version text version save to e-mail
chordsukulelecavacokeyboardtabbassdrummharmonicsflute Guitar Pro
chords

Blood Brothers

  		 
Dropped-D tuning (D A D G B E) low-to-high 
 
------------------------------------------------------------------------------ 
------------------------------------------------------------------------------ 
-7-7-10-7-9------7-7-10-7-7-------7----7-7-10-7-9------7-7-10-7--------------- 
------------10-7------------10-10---10------------10-7----------10-7-7-8-7---- 
------------------------------------------------------------------------------ 
------------------------------------------------------------------------------ 
 Slight PM (Intro and Fill)----------------------------------------------     
 
--------------------------------------|---------|----------------------------- 
--------------------------------------|---------|----------------------------- 
----10---9---------10-----------------|---------|----------------------------- 
-0-0-x-0-x-10-7-0-0-x-0-0-10-10-10-10-|-3-3-3-3-|-10-10-10-------------------- 
-0-0-8-0-7-10-7-0-0-8-0-0-10-10-10-10-|-3-3-3-3-|-8--8--8--------------------- 
-0-0---0---10-7-0-0---0-0-10-10-10-10-|-3-3-3-3-|-8--8--8--------------------- 
 Heavy Intro (Also "Kill, Kill,Kill . . .  .")    "And Again and again . . ."  
 
---------------------------------|-----------------|-------------------------- 
---------------------------------|-----------------|-------------------------- 
---------------------------------|-----------------|-------------------------- 
---------------------------------|-0-0----0---0-0--|-10-7-0----10-7-0--------- 
-----8---7----------8---7--------|-0-0----0---0-0--|-10-7-0----10-7-0--------- 
-0-0---0---10-7-0-0---0---10-7-7-|-0-0----0---0-0--|-10-7-0----10-7-0--------- 
  Verse (PM top string only)       (Corruption and Abuse)       outro chorus   
 
_______________________________________________________ 
Contribuição: ([email protected]) 
	  

Full key step upFull key step up
Half key step upHalf key step up
Half key step downHalf key step down
Full key step downFull key step down
Search Paypal
auto scroll beats size up size down change color hide chords drawings
tab show chords e-chords YouTube Clip e-chords hide all tabs e-chords go to top tab