Pantera

Cowboys from hell (intro)

Pantera

tabs Advanced advanced

by  CORRAL URIAS

save to print version add songbook text version e-mail correct tuner
chordsukulelecavacokeyboardtabbassdrumsharmonicaflute Guitar Pro
close

there isn't a video lesson for this song

chords

Cowboys from hell (intro)

	  		pantera 
cowboys from hell 
[email protected] 
 
viva mexico¡¡¡ 
 
intro 
1.-----------|---------------------------------|-------------------------------- 
2.-----------|---------------------------------|-------------------------------- 
3.-----------|---------------------------------|-------------------------------- 
4.-----------|---------------------------------|-------------------------------- 
5.-----------|---------------------------------|-------------------------------- 
6.-0-0-0-0-0-|-0-0-0-0-0-0-0-0-0-0-0-0-0-0-0-0-|-0-0-0-0-0-0-0-0-0-0-0-0-0-0-0-0 
  
  
  
                                    
riff b  
1.----------------------------------|-------------------------------|------------ 
2.----------------------------------|-------------------------------|------------ 
3.----------------------------------|-----------------------------7-|------------ 
4.----------------------------------|---5---5-7-5-7-5-8-5-7-5-8h9---|------------ 
5.----------------------------------|-7---7-------------------------|------------ 
6.--0-0-0-0-0-0-0-0-0-0-0-0-0-0-0-0-|-------------------------------|------------ 
 
  
Riff C 
  
1.--------------------------------| 
2.--------------------------------| 
3.--------------------------------| 
4.---------2---2---------------0--| 
5.---------0---0---1---0---1h2----| 
6.-0-3-0-3---3---3---3---3--------| 
 

		  

Full key step upFull key step up
Half key step upHalf key step up
Half key step downHalf key step down
Full key step downFull key step down
auto scroll beats size up size down change color hide chords drawings
tab show chords e-chords YouTube Clip e-chords hide all tabs e-chords go to top tab

share