Pangaea

home > Pangaea

Smile Tab

Pangaea

Difficulty: nolevelnolevel

tuner correct add songbook print version text version save to e-mail
chordsukulelecavacokeyboardtabbassdrumsharmonicsflute Guitar Pro
chords

Smile

  		Transcribed by Andrew Loch ([email protected]) 
 
Part I 
 
Bass riff: 
 
G----------------------------------------- 
D----------------------------------------- 
A-----------5-5-5-5-5-2-2-2-2-2-4-4-2-0-2- 
E-2-2-2-2-2------------------------------- 
 
The guitar follows the bass riff by playing the power chords: 
 
  Gb5  D5  B5 Db5  B5  A5  B5 
G|---|-7-|-4-|-6-|-4-|-2-|-4-| 
D|-4-|-7-|-4-|-6-|-4-|-2-|-4-| 
A|-4-|-5-|-2-|-4-|-2-|-0-|-2-| 
E|-2-|---|---|---|---|---|---| 
 
Chorus (okay bit) chords: 
 
  D5       E5 
G-7-7-7-7--9-9\- 
D-7-7-7-7--9-9\- 
A-5-5-5-5--7-7\- 
E--------------- 
 
Part II 
 
  E5        D5                  A5 
G-9-9-9-9--7-7-7-7-           ----- 
D-9-9-9-9--7-7-7-7- finish on --7-- 
A-7-7-7-7--5-5-5-5-           --7-- 
E------------------           --5-- 
 
 
 

	  

Full key step upFull key step up
Half key step upHalf key step up
Half key step downHalf key step down
Full key step downFull key step down
Search Paypal
auto scroll beats size up size down change color hide chords drawings
tab show chords e-chords YouTube Clip e-chords hide all tabs e-chords go to top tab