Pangaea

Boys

Pangaea

tabs

save to print version add songbook text version e-mail correct tuner
chordsukulelecavacokeyboardtabbassdrumsharmonicaflute Guitar Pro
close

there isn't a video lesson for this song

chords

Boys

	  		x - right hand mute 
/ or \ - slide 
~ - let ring 
~~ - let ring lots! 
 
 
ORDER: 
----- 
Intro Riff (X1) 
Verse (X2) 
Chorus (X4) 
Intro Riff (X1) 
Verse (X2) 
Chorus (X4) 
Racism Sucks Bit (X2) 
Bridge1 (X1)   
Bridge2 (X4) 
Intro Riff (X1) 
Verse (X2) 
Chorus (X4) 
Intro Riff (X1) 
Racism Sucks Bit (X3) 
Extra Bit (Lots) 
 
TABS: 
----- 
Intro Riff (Version 1): 
|------------------------------------------| 
|------------------------------------------| 
|------------------------------------------| 
|-12-12-11-7---10-10-9-5---2-2-0-5---7-7-7-| 
|-12-12-11-7---10-10-9-5---2-2-0-5---7-7-7-| 
|-10-10--9-5----8--8-7-3---0-0-0-3---5-5-5-| 
		*OR* 
Intro Riff (Version 2): 
|-------------------------------------| 
|-------------------------------------| 
|-7-7-6-----5-5-4---------------------| 
|-7-7-6-7---5-5-4-5---2-2-0-5---7-7-7-| 
|-5-5-4-7---3-3-2-5---2-2-0-5---7-7-7-| 
|-------5---------3---0-0-0-3---5-5-5-| 
 
Verse: 
|----------------------------------0-0-0-0-0-0-0-0-0-0-------| 
|----------------------------------0-0-0-0-0-0-0-0-0-0-------| 
|---------------------4-4-4\2--------------------------------| 
|-5---5--x-x-5--x-x-5-4-4-4\2-5-2~--------------------\0-0-0-| 
|-5---5--x-x-5--x-x-5-2-2-2\0-5-2~--------------------\0-0-0-| 
|-3---3--x-x-3--x-x-3---------3-0~---------------------0-0-0-| 
 
Chorus: 
|-----------------------5--5--5--5--5--5--------| 
|-----------------------5--5--5--5--5--5--------| 
|-5--5~---5--7--7~---7--------------------------| 
|-5--5~---5--7--7~---7--7--7--7--7--7--7--0-0-0-| 
|-3--3~---3--5--5~---5--7--7--7--7--7--7--0-0-0-| 
|-----------------------5--5--5--5--5--5--0-0-0-| 
 
Racism Sucks bit: 
|----------------------------------------------------| 
|----------------------------------------------------| 
|----------------------------------------------------| 
|-5--5--5--5--5--5--7-7-7--5--5--5--5--3-3-3-3-7-7-7-| 
|-5--5--5--5--5--5--7-7-7--5--5--5--5--3-3-3-3-7-7-7-| 
|-3--3--3--3--3--3--5-5-5--3--3--3--3--1-1-1-1-5-5-5-| 
 
Bridge1: 
|---------------------------------------------------------------------------| 
|---------------------------------------------------------------------------| 
|----------5--5--5~--/9-9-9-9--7--10--10--10--10\9-9-9-9--7--10--10--10--10-| 
|-2~~------5--5--5~--/9-9-9-9--7--10--10--10--10\9-9-9-9--7--10--10--10--10-| 
|-2~~------3--3--3~--/7-7-7-7--5---8---8---8---8\7-7-7-7--5---8---8---8---8-| 
|-0~~-----------------------------------------------------------------------| 
 
Bridge2: 
|---------------------------| 
|---------------------------| 
|-/9-9-9-9-9-7-------5--5-5-| 
|-/9-9-9-9-9-7--3-x--5--5-5-| 
|-/7-7-7-7-7-5--3-x--3--3-3-| 
|---------------1-x---------| 
 
Extra Non-EP bit: 
|---------0---0---0---0---------| 
|--------/5---3---5---0---------| 
|-------------------------------| 
|-3-3-3X-----------------3-3-3X-| 
|-3-3-3X-----------------3-3-3X-| 
|-1-1-1X-----------------1-1-1X-| 
Thats it! 

		  

See also:

tabs The Beautiful Girls - Blackbird tabs Joss Stone - Super Duper Love tabs INXS - Heaven Sent tabs Beaverloop - Funkywrench tabs Blackman Bertie - Favourite Jeans tabs Baby Animals - Don't Tell Me What To Do
e-chords

Other versions:

tabs Pangaea - Boys tabs The Beatles - Boys tabs Bauhaus - Boys tabs Britney Spears - Boys (The Co-Ed Remix) Feat. Pharrell Williams tabs 67 Special - Boys And Girls tabs Good Charlotte - Boys and Girls
auto scroll beats size up size down change color hide chords drawings
tab show chords e-chords YouTube Clip e-chords hide all tabs e-chords go to top tab

share