Panda

home > Panda

Cita en el quirofano Tab

Panda

Difficulty: ExpertExpert

by hongkong

tuner correct add songbook print version text version save to e-mail
chordsukulelecavacokeyboardtabbassdrumsharmonicsflute Guitar Pro
chords

Cita en el quirofano

Year: 2006 - Album: Para Ti Con Desprecio

  		intro: 
e|-----------------------------------| 
B|-----------------------------------| 
G|-----------------------------------| 
D|88888-88-88-88-88-888888-88-88-88--| 
A|66666-66-66-66-66-666666-66-66-66--| 
E|44444-44-44-44-44-444444-44-44-44--| 
  .....             ...... 
cont: 
e|-----------------------------------------------------------------------------| 
B|-----------------------------------------------------------------------------| 
G|-----------------------------------------------------------------------------| 
D|------------------888888-88-88-88--6666-66-66-66-66-6666-6-6-6-6666-6 8888-8-| 
A|66666-66-66-66-66-666666-66-66-66--3333-33-33-33-33-4444-4-4-4-6666-6-6666-6-| 
E|44444-44-44-44-44------------------------------------------------------------| 
  .....             ......           ....             ....       ....   .... 
verso: 
e|---------------------------------------------------------------------------| 
B|---------------------------------------------------------------------------| 
G|--------88888---------666-888----------------------------------------------| 
D|666666--88888--33333--666-888----------------------------------------------|(x2) 
A|666666--66666--33333--444-666----------------------------------------------| 
E|444444---------11111-------------------------------------------------------| 
 
e|---------------------------------------------------------------------------| 
B|---------------------------------------------------------------------------| 
G|--------88888---------666-888----------------------------------------------|(x2) 
D|666666--88888--33333--666-888----------------------------------------------| 
A|666666--66666--33333--444-666----------------------------------------------| 
E|444444---------11111-------------------------------------------------------| 
  ...... ...... ....... ... ... 
coro: 
guitarra 2 
e|---------------------------------------------------------------------------| 
B|---1---1---1----1---1---1----1---------------------------------------------| 
G|--1-1-1-1-1-1--1-1-1-1-1-1--1-1--------------------------------------------| 
D|---------------------------1-----------------------------------------------|(x2) 
A|--------------3---3---4----------------------------------------------------| 
D|-1---1---1-----------------------------------------------------------------| 
 
intro(x1) 
verso(x1) 
coro: 
guitarra 2 
e|---------------------------------------------------------------------------| 
B|---1---1---1----1---1---1----1---------------------------------------------| 
G|--1-1-1-1-1-1--1-1-1-1-1-1--1-1--------------------------------------------| 
D|---------------------------1-----------------------------------------------| 
A|--------------3---3---4----------------------------------------------------| 
D|-1---1---1-----------------------------------------------------------------| 
tenemos una cita... 
cont: 
e|-----------------------------------------------------------------------------| 
B|-----------------------------------------------------------------------------| 
G|-----------------------------------------------------------------------------| 
D|------------------888888-88-88-88--6666-66-66-66-66-6666-6-6-6-6666-6 8888-8-| 
A|66666-66-66-66-66-666666-66-66-66--3333-33-33-33-33-4444-4-4-4-6666-6-6666-6-| 
E|44444-44-44-44-44------------------------------------------------------------| 
  .....             ......           ....             ....       ....   .... 
me sacara el corazon 
 
Solo: 
Guitarra 1: 
e|---------------------------------------------------------------------------| 
B|---------------------------------------------------------------------------| 
G|---------------------------------------------------------------------------| 
D|6-6-6-6-6-6--8-8-8-8-8--6-6-6-6-6-6-6-6-6-6-6-6-6-6------------------------| 
A|6-6-6-6-6-6--6-6-6-6-6--3-3-3-3-3-3-3-4-4-4-4-6-6-6------------------------| 
E|4-4-4-4-4-4----------------------------------------------------------------| 
Guitarra 2 
e|------------------------------11v---9h11-13v/15v-16v----15h16-18-16p15-16-----| 
B|-------------------9-11-13-14-------------------------------------------------| 
G|---------------8-10-----------------------------------------------------------| 
D|---------6-8-10---------------------------------------------------------------| 
A|------6-8---------------------------------------------------------------------| 
D|6-8-10------------------------------------------------------------------------| 
 
e|(t16)-13-(t16)-11-(t16)-9-(t16)-8-(t16)-6-(t16)-4---/13-/13-11v------------| 
B|---------------------------------------------------------------------------| 
G|---------------------------------------------------------------------------| 
D|---------------------------------------------------------------------------| 
A|---------------------------------------------------------------------------| 
E|---------------------------------------------------------------------------| 
El solo todavia no lo saco completo, todavia me faltan los ligues que van rapido 
pero estan muy perros jeje 
 
coro(x1) 
 
intro(x1) 
 
La rola se termina con C#5 
e|-------------| 
B|-------------| 
G|-6-----------| 
D|-6-----------| 
A|-4-----------| 
E|-------------| 
ahi te va mi dolor. 
 
Va esta rola es para ariana 
de parte de Devilskate 
 

	  

Full key step upFull key step up
Half key step upHalf key step up
Half key step downHalf key step down
Full key step downFull key step down
Search Paypal
auto scroll beats size up size down change color hide chords drawings
tab show chords e-chords YouTube Clip e-chords hide all tabs e-chords go to top tab