Pain of Salvation

The Perfect Element

Pain of Salvation

tabs

save to print version add songbook text version e-mail correct tuner
chordsukulelecavacokeyboardtabbassdrumsharmonicaflute Guitar Pro
close

there isn't a video lesson for this song

chords

The Perfect Element

	  		 
Gtr I ( D A D G B E ) - 'Clean' 
Gtr II ( D A D G B E ) - 'Clean' 
Gtr III ( D A D G B E ) - 'Crunch' 
Gtr IV ( D A D G B E ) - 'Crunch' 
Gtr V ( D A D G B E ) - 'Distortion' 
Gtr VI ( D A D G B E ) - 'Distortion' 
 
  Q=74 
 7/8 
  Gtr I 
   E   S  S  S  S  S  S  S  S   E   S  S    E   S  S  S  S  S  S  S  S   E   S  S 
|---15----15-------12-------13-------|---15----15-------12-------13-------| 
|------10----10-------10-------10----|------13----13-------13-------13----| 
|---------------10-------10-------10-|---------------10-------10-------10-| 
|-0----------------------------------|-0----------------------------------| 
|------------------------------------|------------------------------------| 
|------------------------------------|------------------------------------| 
 
 
   E   S  S  S  S  S  S  S  S   E   S  S    E   S  S  S  S  S  S  S  S   E   S  S 
|---15----15-------12-------13-------|---15----15-------12-------13-------| 
|------12----12-------12-------12----|------11----11-------11-------11----| 
|---------------10-------10-------10-|---------------10-------10-------10-| 
|-0----------------------------------|-0----------------------------------| 
|------------------------------------|------------------------------------| 
|------------------------------------|------------------------------------| 
 
 
   D5  
  Gtr III 
   H                    +Q. 
   |                     | 
   /                     / 
 
  Gtr I 
    E   S  S  S   S  S  S  S   S   E       S  S 
|----15----15--------12--------13-----------| 
|-------10-----10-------10------------10----| 
|-----------------10--------10-----------10-| 
|-------------------------------------------| 
|-------------------------------------------| 
|--0----------------------------------------| 
| 
| Gtr II 
|   E  E      E.         E      E      E. 
|-12-----------------12---------------------| 
|----15---------------------15--------------| 
|----------14---------------------14--------| 
|-------------------------------------------| 
|-------------------------------------------| 
|-------------------------------------------| 
 
 
  +H                    +Q. 
   |                     | 
   /                     / 
 
    E   S  S  S   S  S  S  S   S   E       S  S 
|----15----15--------12--------13------------| 
|-------13-----13-------13------------13-----| 
|-----------------10--------10-----------10--| 
|--0-----------------------------------------| 
|--------------------------------------------| 
|--------------------------------------------| 
| 
|   E  E      E.         E      E      E. 
|-12-----------------12----------------------| 
|----13---------------------13---------------| 
|----------14---------------------14---------| 
|--------------------------------------------| 
|--------------------------------------------| 
|--------------------------------------------| 
 
 
  +H                    +Q. 
   |                     | 
   /                     / 
 
    E   S  S  S   S  S  S  S   S   E       S  S 
|----15----15--------12--------13-----------| 
|-------12-----12-------12------------12----| 
|-----------------10--------10-----------10-| 
|--0----------------------------------------| 
|-------------------------------------------| 
|-------------------------------------------| 
| 
|   E  E      E.         E      E      E. 
|-12-----------------12---------------------| 
|----12---------------------12--------------| 
|----------14---------------------14--------| 
|-------------------------------------------| 
|-------------------------------------------| 
|-------------------------------------------| 
 
 
  +H                    +Q. 
   |                     | 
   /                     / 
 
    E   S  S  S   S  S  S  S   S   E       S  S 
|----15----15--------12--------13------------| 
|-------11-----11-------11------------11-----| 
|-----------------10--------10-----------10--| 
|--0-----------------------------------------| 
|--------------------------------------------| 
|--------------------------------------------| 
| 
|   E  E      E.         E      E      E. 
|-12-----------------12----------------------| 
|----11---------------------11---------------| 
|----------14---------------------14---------| 
|--------------------------------------------| 
|--------------------------------------------| 
|--------------------------------------------| 
 
 
    Gtr III 
     E   S  S  S  S  S   E   S   E  E   E   S  S  S  S  S   E   S   E  E  
||----15-15-15-12-12-12-13-13-13-|---15-15-15-12-12-12-13-13-13-| 
||o---10-10-10-10-10-10-10-10-10-|---13-13-13-13-13-13-13-13-13-| 
||----10-10-10-10-10-10-10-10-10-|---10-10-10-10-10-10-10-10-10-| 
||--0----------------------------|-0----------------------------| 
||o-0----------------------------|-0----------------------------| 
||--0----------------------------|-0----------------------------| 
| 
|   Gtr IV 
|    E   S  S  S  S  S   E   S   E  E   E   S  S  S  S  S   E   S   E  E  
||-------------------------------|------------------------------| 
||o------------------------------|------------------------------| 
||-----9--9--9s=5--5--5S=7--7--7-|----9--9--9s=5--5--5S=7--7--7-| 
||-------------------------------|------------------------------| 
||o----7--7--7s=3--3--3S=5--5--5-|----7--7--7s=3--3--3S=5--5--5-| 
||--0----------------------------|-0----------------------------| 
 
 
   E   S  S  S  S  S   E   S   E  E   E   S  S  S  S  S   E   S   E  E  
|---15-15-15-12-12-12-13-13-13-|---15-15-15-12-12-12-13-13-13--|| 
|---12-12-12-12-12-12-12-12-12-|---11-11-11-11-11-11-11-11-11-o|| 
|---10-10-10-10-10-10-10-10-10-|---10-10-10-10-10-10-10-10-10--|| 
|-0----------------------------|-0-----------------------------|| 
|-0----------------------------|-0----------------------------o|| 
|-0----------------------------|-0-----------------------------|| 
| 
|  E   S  S  S  S  S   E   S   E  E   E   S  S  S  S  S   E   S   E  E  
|------------------------------|-------------------------------|| 
|------------------------------|------------------------------o|| 
|----9--9--9s=5--5--5S=7--7--7-|----9--9--9s=5--5--5S=7--7--7--|| 
|------------------------------|-------------------------------|| 
|----7--7--7s=3--3--3S=5--5--5-|----7--7--7s=3--3--3S=5--5--5-o|| 
|-0----------------------------|-0-----------------------------|| 
 
 
  Gtrs III, IV 
                > 
  ~~~~~~~~~~~~~~~~~~~~~~~~ 
  H    +Q.     +H     +Q.     Wx6 
|------------|--------------|--------| 
|------------|--------------|--------| 
|------------|--------------|--------| 
|-0----(0)---|-(0)----(0)---|--------| 
|-0----(0)---|-(0)----(0)---|--------| 
|-0----(0)---|-(0)----(0)---|--------| 
 
 
   4/8 
    Gtr I 
      H 
||-------------------------------------------------------------------| 
||o-^-5--------------------------------------------------------------| 
||--^-7--------------------------------------------------------------| 
||--^-7--------------------------------------------------------------| 
||o-^(0)-------------------------------------------------------------| 
||--^(0)-------------------------------------------------------------| 
| 
|    "Yesterday found him..." 
| 
|   Gtr II 
|     T   T   T   T   T   T   T   T   T   T   T   T   T   T   T   T 
||-------------------------------------------------------------------| 
||o------------------------------------------------------------------| 
||---<7>-<7>---------<7>-<7>---------<7>-<7>---------<7>-<7>---------| 
||-----------<7>-<7>---------<7>-<7>---------<7>-<7>---------<7>-<7>-| 
||o------------------------------------------------------------------| 
||-------------------------------------------------------------------| 
 
 
 3/8 
  +Q. 
|-------------------------------------------------| 
|-(5)---------------------------------------------| 
|-(7)---------------------------------------------| 
|-(7)---------------------------------------------| 
|-(0)---------------------------------------------| 
|-(0)---------------------------------------------| 
| 
|  T   T   T   T   T   T   T   T   T   T   T   T 
|-------------------------------------------------| 
|-------------------------------------------------| 
|-<7>-<7>---------<7>-<7>---------<7>-<7>---------| 
|---------<7>-<7>---------<7>-<7>---------<7>-<7>-| 
|-------------------------------------------------| 
|-------------------------------------------------| 
 
 
 4/8 
    H 
|-^(3)-------------------------------------------------------------| 
|-^-3--------------------------------------------------------------| 
|-^-5--------------------------------------------------------------| 
|-^-7--------------------------------------------------------------| 
|-^(0)-------------------------------------------------------------| 
|-^(0)-------------------------------------------------------------| 
| 
|   T   T   T   T   T   T   T   T   T   T   T   T   T   T   T   T 
|------------------------------------------------------------------| 
|------------------------------------------------------------------| 
|--<7>-<7>---------<7>-<7>---------<7>-<7>---------<7>-<7>---------| 
|----------<7>-<7>---------<7>-<7>---------<7>-<7>---------<7>-<7>-| 
|------------------------------------------------------------------| 
|------------------------------------------------------------------| 
 
 
 3/8 
  +Q. 
|-(3)------------------------------------------------| 
|-(3)------------------------------------------------| 
|-(5)------------------------------------------------| 
|-(7)------------------------------------------------| 
|-(0)------------------------------------------------| 
|-(0)------------------------------------------------| 
| 
|  T   T   T   T   T   T   T   T   T   T   T   T 
|----------------------------------------------------| 
|----------------------------------------------------| 
|-<7>-<7>---------<7>-<7>---------<7>-<7>------------| 
|---------<7>-<7>---------<7>-<7>---------<7>-<7>----| 
|----------------------------------------------------| 
|----------------------------------------------------| 
 
 
 4/8 
    H 
|------------------------------------------------------------------| 
|-^-5--------------------------------------------------------------| 
|-^-4--------------------------------------------------------------| 
|-^-7--------------------------------------------------------------| 
|-^(0)-------------------------------------------------------------| 
|-^(0)-------------------------------------------------------------| 
| 
|   T   T   T   T   T   T   T   T   T   T   T   T   T   T   T   T 
|------------------------------------------------------------------| 
|------------------------------------------------------------------| 
|--<7>-<7>---------<7>-<7>---------<7>-<7>---------<7>-<7>---------| 
|----------<7>-<7>---------<7>-<7>---------<7>-<7>---------<7>-<7>-| 
|------------------------------------------------------------------| 
|------------------------------------------------------------------| 
 
 
 3/8 
  +Q. 
|-------------------------------------------------| 
|-(5)---------------------------------------------| 
|-(4)---------------------------------------------| 
|-(7)---------------------------------------------| 
|-(0)---------------------------------------------| 
|-(0)---------------------------------------------| 
| 
|  T   T   T   T   T   T   T   T   T   T   T   T 
|-------------------------------------------------| 
|-------------------------------------------------| 
|-<7>-<7>---------<7>-<7>---------<7>-<7>---------| 
|---------<7>-<7>---------<7>-<7>---------<7>-<7>-| 
|-------------------------------------------------| 
|-------------------------------------------------| 
 
 
 4/8 
    H 
|------------------------------------------------------------------| 
|-^-6--------------------------------------------------------------| 
|-^-7--------------------------------------------------------------| 
|-^-8--------------------------------------------------------------| 
|-^(0)-------------------------------------------------------------| 
|-^(0)-------------------------------------------------------------| 
| 
|   T   T   T   T   T   T   T   T   T   T   T   T   T   T   T   T 
|------------------------------------------------------------------| 
|------------------------------------------------------------------| 
|--<7>-<7>---------<7>-<7>---------<7>-<7>---------<7>-<7>---------| 
|----------<7>-<7>---------<7>-<7>---------<7>-<7>---------<7>-<7>-| 
|------------------------------------------------------------------| 
|------------------------------------------------------------------| 
 
 
 3/8 
    Q. 
|------------------------------------------------------|| 
|-^-5-------------------------------------------------o|| 
|-^-7--------------------------------------------------|| 
|-^-8--------------------------------------------------|| 
|-^(0)------------------------------------------------o|| 
|-^(0)-------------------------------------------------|| 
| 
|   T   T   T   T   T   T   T   T   T   T   T   T 
|------------------------------------------------------|| 
|-----------------------------------------------------o|| 
|--<7>-<7>---------<7>-<7>---------<7>-<7>-------------|| 
|----------<7>-<7>---------<7>-<7>---------<7>-<7>-----|| 
|-----------------------------------------------------o|| 
|------------------------------------------------------|| 
 
 
 4/8 
     E                S        E               E                S 
|--12--------------------------------------12----------------------| 
|-(15)-------------15--------------------------------------15------| 
|-(14)---------------------14--------------------------------------| 
|------------------------------------------------------------------| 
|------------------------------------------------------------------| 
|------------------------------------------------------------------| 
| 
|   T   T   T   T   T   T   T   T   T   T   T   T   T   T   T   T 
|------------------------------------------------------------------| 
|------------------------------------------------------------------| 
|--<7>-<7>---------<7>-<7>---------<7>-<7>---------<7>-<7>---------| 
|----------<7>-<7>---------<7>-<7>---------<7>-<7>---------<7>-<7>-| 
|------------------------------------------------------------------| 
|------------------------------------------------------------------| 
 
 
 3/8 
   +S       S        E               E  
|------------------12------------------------------| 
|-(15)-----------------------------15--------------| 
|----------14--------------------------------------| 
|--------------------------------------------------| 
|--------------------------------------------------| 
|--------------------------------------------------| 
| 
|   T   T   T   T   T   T   T   T   T   T   T   T 
|--------------------------------------------------| 
|--------------------------------------------------| 
|--<7>-<7>---------<7>-<7>---------<7>-<7>---------| 
|----------<7>-<7>---------<7>-<7>---------<7>-<7>-| 
|--------------------------------------------------| 
|--------------------------------------------------| 
 
 
 4/8 
    E                S        E               E                S 
|-----------------12--------------------------------------12------| 
|-------------------------15--------------------------------------| 
|-14--------------------------------------14----------------------| 
|-----------------------------------------------------------------| 
|-----------------------------------------------------------------| 
|-----------------------------------------------------------------| 
| 
|  T   T   T   T   T   T   T   T   T   T   T   T   T   T   T   T 
|-----------------------------------------------------------------| 
|-----------------------------------------------------------------| 
|-<7>-<7>---------<7>-<7>---------<7>-<7>---------<7>-<7>---------| 
|---------<7>-<7>---------<7>-<7>---------<7>-<7>---------<7>-<7>-| 
|-----------------------------------------------------------------| 
|-----------------------------------------------------------------| 
 
 
 3/8 
   +S       S        E               E  
|-(12)-----------------------------12-----------------| 
|----------15-----------------------------------------| 
|------------------14---------------------------------| 
|-----------------------------------------------------| 
|-----------------------------------------------------| 
|-----------------------------------------------------| 
| 
|    T   T   T   T   T   T   T   T   T   T   T   T 
|-----------------------------------------------------| 
|-----------------------------------------------------| 
|--<7>-<7>---------<7>-<7>---------<7>-<7>------------| 
|----------<7>-<7>---------<7>-<7>---------<7>-<7>----| 
|-----------------------------------------------------| 
|-----------------------------------------------------| 
 
 
 4/8 
    E                S        E               E                S 
|-------------------------12--------------------------------------| 
|-15--------------------------------------15----------------------| 
|-----------------14--------------------------------------14------| 
|-----------------------------------------------------------------| 
|-----------------------------------------------------------------| 
|-----------------------------------------------------------------| 
| 
|  T   T   T   T   T   T   T   T   T   T   T   T   T   T   T   T 
|-----------------------------------------------------------------| 
|-----------------------------------------------------------------| 
|-<7>-<7>---------<7>-<7>---------<7>-<7>---------<7>-<7>---------| 
|---------<7>-<7>---------<7>-<7>---------<7>-<7>---------<7>-<7>-| 
|-----------------------------------------------------------------| 
|-----------------------------------------------------------------| 
 
 
 3/8 
   +S       S        E               E  
|----------12--------------------------------------| 
|------------------15------------------------------| 
|-(14)-----------------------------14--------------| 
|--------------------------------------------------| 
|--------------------------------------------------| 
|--------------------------------------------------| 
| 
    T   T   T   T   T   T   T   T   T   T   T   T 
|--------------------------------------------------| 
|--------------------------------------------------| 
|--<7>-<7>---------<7>-<7>---------<7>-<7>---------| 
|----------<7>-<7>---------<7>-<7>---------<7>-<7>-| 
|--------------------------------------------------| 
|--------------------------------------------------| 
 
 
 4/8 
    E                S        E               E                S 
|-12--------------------------------------12----------------------| 
|-----------------15--------------------------------------15------| 
|-------------------------14--------------------------------------| 
|-----------------------------------------------------------------| 
|-----------------------------------------------------------------| 
|-----------------------------------------------------------------| 
| 
|  T   T   T   T   T   T   T   T   T   T   T   T   T   T   T   T 
|-----------------------------------------------------------------| 
|-----------------------------------------------------------------| 
|-<7>-<7>---------<7>-<7>---------<7>-<7>---------<7>-<7>---------| 
|---------<7>-<7>---------<7>-<7>---------<7>-<7>---------<7>-<7>-| 
|-----------------------------------------------------------------| 
|-----------------------------------------------------------------| 
 
 
 3/8 
   +S       S        E               E  
|------------------12---------------------------------| 
|-(15)-----------------------------15----------------| 
|----------14-----------------------------------------| 
|-----------------------------------------------------| 
|-----------------------------------------------------| 
|-----------------------------------------------------| 
| 
|   T   T   T   T   T   T   T   T   T   T   T   T 
|-----------------------------------------------------| 
|-----------------------------------------------------| 
|--<7>-<7>---------<7>-<7>---------<7>-<7>------------| 
|----------<7>-<7>---------<7>-<7>---------<7>-<7>----| 
|-----------------------------------------------------| 
|-----------------------------------------------------| 
 
 
 7/8 
    E             S      E           E           E            S      E           E  
|--0------------------------------0-----------------------------0-------------------| 
|-(3)-----------3-----------------------------3-----------------------------3-------| 
|-(2)-----------------2-----------------------------------2-------------------------| 
|-----------------------------------------------------------------------------------| 
|-----------------------------------------------------------------------------------| 
|-----------------------------------------------------------------------------------| 
| 
|  T   T  T  T  T  T  T  T  T  T  T  T  T  T  T  T  T  T  T  T  T  T  T  T  T  T  S 
|-10--10-10-10-10-10-10-10-10-10-10-10-10-10-10-10-10-10-10-10-10-10-10-10-13-12-10-| 
|-----------------------------------------------------------------------------------| 
|-----------------------------------------------------------------------------------| 
|-----------------------------------------------------------------------------------| 
|-----------------------------------------------------------------------------------| 
|-----------------------------------------------------------------------------------| 
 
 
    E            S      E           E           E            S      E           E  
|--------------0-----------------------------0-----------------------------0------------| 
|--------------------3-----------------------------------3------------------------------| 
|--2-----------------------------2-----------------------------2------------------------| 
|---------------------------------------------------------------------------------------| 
|---------------------------------------------------------------------------------------| 
|---------------------------------------------------------------------------------------| 
| 
|  T  T  T  T  T  T  T  T  T  T  T  T  T  T  T  T  T  T  T  T  T  T  T  T  T  T  T  T 
|-10-10-10-10-10-10-10-10-10-10-10-10-10-10-10-10-10-10-10-10-10-10-10-10-13-12-10------| 
|----------------------------------------------------------------------------------13---| 
|---------------------------------------------------------------------------------------| 
|---------------------------------------------------------------------------------------| 
|---------------------------------------------------------------------------------------| 
|---------------------------------------------------------------------------------------| 
 
 
    E            S      E           E           E            S      E           E  
|--------------------0-----------------------------------0-------------------------| 
|--3-----------------------------3-----------------------------3-------------------| 
|--------------2-----------------------------2-----------------------------2-------| 
|----------------------------------------------------------------------------------| 
|----------------------------------------------------------------------------------| 
|----------------------------------------------------------------------------------| 
| 
|  T  T  T  T  T  T  T  T  T  T  T  T  T  T  T  T  T  T  T  T  T  T  T  T  T  T  S 
|-10-10-10-10-10-10-10-10-10-10-10-10-10-10-10-10-10-10-10-10-10-10-10-10-13-12-10-| 
|----------------------------------------------------------------------------------| 
|----------------------------------------------------------------------------------| 
|----------------------------------------------------------------------------------| 
|----------------------------------------------------------------------------------| 
|----------------------------------------------------------------------------------| 
 
 
    E            S      E           E           E            Q        +S 
|--0-----------------------------0------------------------------------| 
|--------------3-----------------------------3------------------------| 
|--------------------2-----------------------------------2--------(2)-| 
|---------------------------------------------------------------------| 
|---------------------------------------------------------------------| 
|---------------------------------------------------------------------| 
| 
|                                                             Gtr V 
|  T  T  T  T  T  T  T  T  T  T  T  T  T  T  T  T  T  T  T  T   Q 
|-10-10-10-10-10-10-10-10-10-10-10-10-10-10-10-10-10-10-10-10-/17-----| 
|-------------------------------------------------------------/15-----| 
|---------------------------------------------------------------------| 
|---------------------------------------------------------------------| 
|---------------------------------------------------------------------| 
|---------------------------------------------------------------------| 
 
 
                                                   6/8 
      Gtr V 
      PM-----------------------------------| 
    S S S  E  E S S S +Q     S S S  E  E S S S +Q    4x E. E. E.  E. 
||-----------------------|-----------------------||--------------| 
||o----------------------|----------------------o||--------------| 
||-----------------------|-----------------------||-4--4--4------| 
||-----------------------|-----------------------||-4--4--4------| 
||o---0-0-0-0-0-0-0-(0)--|---0-0-0-0-0-0-0-(0)--o||-2--0--2--/4--| 
||----0-0-0-0-0-0-0-(0)--|---0-0-0-0-0-0-0-(0)---||-2--0--2--/4--| 
 
      "In his head..." 
 
 
   D5  
 7/8 
  Gtr V 
  H                   +Q.               +H                   +Q. 
  |                    |                 |                    | 
  /                    /                 /                    / 
 
  Gtr I 
   E   S  S  S  S  S  S  S   S   E   S  S     E   S  S  S  S  S  S  S   S   E   S  S 
|---15----15-------12--------13-------|----15----15-------12--------13-------| 
|------10----10-------10--------10----|-------13----13-------13--------13----| 
|---------------10--------10-------10-|----------------10--------10-------10-| 
|-0-----------------------------------|--0-----------------------------------| 
|-0-----------------------------------|--------------------------------------| 
|-0-----------------------------------|--------------------------------------| 
 
 
  +H                   +Q. 
   |                    | 
   /                    / 
 
    E   S  S  S  S  S  S  S   S   E   S  S 
|----15----15-------12--------13-------| 
|-------12----12-------12--------12----| 
|----------------10--------10-------10-| 
|--0-----------------------------------| 
|--------------------------------------| 
|--------------------------------------| 
 
 
  +H                   +Q. 
   |                    | 
   /                    / 
 
                                     |-3-| 
    E   S  S  S  S  S  S  S   S   E   S  T T T 
|----15----15-------12--------13------------| 
|-------11----11-------11--------11---------| 
|----------------10--------10-------10------| 
|--0-----------------------------------0----| 
|----------------------------------------0--| 
|-------------------------------------------| 
 
 
 4/8 
    E                S       S       S       S       S       S 
|-----------------15--------------15----------------------12------| 
|-------------------------10--------------10----------------------| 
|-------------------------------------------------10--------------| 
|-----------------------------------------------------------------| 
|-----------------------------------------------------------------| 
|--0--------------------------------------------------------------| 
| 
|  "I will never leave..." 
| 
| Gtr II 
|  T   T   T   T   T   T   T   T   T   T   T   T   T   T   T   T 
|-----------------------------------------------------------------| 
|-----------------------------------------------------------------| 
|-<7>-<7>---------<7>-<7>---------<7>-<7>---------<7>-<7>---------| 
|---------<7>-<7>---------<7>-<7>---------<7>-<7>---------<7>-<7>-| 
|-----------------------------------------------------------------| 
|-----------------------------------------------------------------| 
 
 
 3/8 
   S       S        E                S       S 
|-----------------13------------------------------| 
|-10------------------------------10--------------| 
|---------10------------------------------10------| 
|-------------------------------------------------| 
|-------------------------------------------------| 
|-------------------------------------------------| 
| 
|  T   T   T   T   T   T   T   T   T   T   T   T 
|-------------------------------------------------| 
|-------------------------------------------------| 
|-<7>-<7>---------<7>-<7>---------<7>-<7>---------| 
|---------<7>-<7>---------<7>-<7>---------<7>-<7>-| 
|-------------------------------------------------| 
|-------------------------------------------------| 
 
 
 4/8 
    E                S       S       S       S       S       S 
|-----------------15--------------15----------------------12------| 
|-------------------------13--------------13----------------------| 
|-------------------------------------------------10--------------| 
|--0--------------------------------------------------------------| 
|-----------------------------------------------------------------| 
|-----------------------------------------------------------------| 
| 
|  T   T   T   T   T   T   T   T   T   T   T   T   T   T   T   T 
|-----------------------------------------------------------------| 
|-----------------------------------------------------------------| 
|-<7>-<7>---------<7>-<7>---------<7>-<7>---------<7>-<7>---------| 
|---------<7>-<7>---------<7>-<7>---------<7>-<7>---------<7>-<7>-| 
|-----------------------------------------------------------------| 
|-----------------------------------------------------------------| 
 
 
 3/8 
   S       S        E                S       S 
|-----------------13---------------------------------| 
|-13------------------------------13-----------------| 
|---------10------------------------------10---------| 
|----------------------------------------------------| 
|----------------------------------------------------| 
|----------------------------------------------------| 
| 
|  T   T   T   T   T   T   T   T   T   T   T   T 
|----------------------------------------------------| 
|----------------------------------------------------| 
|-<7>-<7>---------<7>-<7>---------<7>-<7>------------| 
|---------<7>-<7>---------<7>-<7>---------<7>-<7>----| 
|----------------------------------------------------| 
|----------------------------------------------------| 
 
 
 4/8 
    E                S       S       S       S       S       S 
|-----------------15--------------15----------------------12------| 
|-------------------------12--------------12----------------------| 
|-------------------------------------------------10--------------| 
|--0--------------------------------------------------------------| 
|-----------------------------------------------------------------| 
|-----------------------------------------------------------------| 
| 
|  T   T   T   T   T   T   T   T   T   T   T   T   T   T   T   T 
|-----------------------------------------------------------------| 
|-----------------------------------------------------------------| 
|-<7>-<7>---------<7>-<7>---------<7>-<7>---------<7>-<7>---------| 
|---------<7>-<7>---------<7>-<7>---------<7>-<7>---------<7>-<7>-| 
|-----------------------------------------------------------------| 
|-----------------------------------------------------------------| 
 
 
 3/8 
   S       S        E                S       S 
|-----------------13------------------------------| 
|-12------------------------------12--------------| 
|---------10------------------------------10------| 
|-------------------------------------------------| 
|-------------------------------------------------| 
|-------------------------------------------------| 
| 
|   T   T   T   T   T   T   T   T   T   T   T   T 
|-------------------------------------------------| 
|-------------------------------------------------| 
|-<7>-<7>---------<7>-<7>---------<7>-<7>---------| 
|---------<7>-<7>---------<7>-<7>---------<7>-<7>-| 
|-------------------------------------------------| 
|-------------------------------------------------| 
 
 
 4/8 
    E                S       S       S       S       S       S 
|-----------------15--------------15----------------------12------| 
|-------------------------11--------------11----------------------| 
|-------------------------------------------------10--------------| 
|--0--------------------------------------------------------------| 
|-----------------------------------------------------------------| 
|-----------------------------------------------------------------| 
| 
|  T   T   T   T   T   T   T   T   T   T   T   T   T   T   T   T 
|-----------------------------------------------------------------| 
|-----------------------------------------------------------------| 
|-<7>-<7>---------<7>-<7>---------<7>-<7>---------<7>-<7>---------| 
|---------<7>-<7>---------<7>-<7>---------<7>-<7>---------<7>-<7>-| 
|-----------------------------------------------------------------| 
|-----------------------------------------------------------------| 
 
 
 3/8 
   S       S        E                S       S 
|-----------------13---------------------------------| 
|-11------------------------------11-----------------| 
|---------10------------------------------10---------| 
|----------------------------------------------------| 
|----------------------------------------------------| 
|----------------------------------------------------| 
| 
|  T   T   T   T   T   T   T   T   T   T   T   T 
|----------------------------------------------------| 
|----------------------------------------------------| 
|-<7>-<7>---------<7>-<7>---------<7>-<7>------------| 
|---------<7>-<7>---------<7>-<7>---------<7>-<7>----| 
|----------------------------------------------------| 
|----------------------------------------------------| 
 
 
 4/8 
    E                S       S       S       S       S       S 
|-----------------15--------------15----------------------12------| 
|-------------------------10--------------10----------------------| 
|-------------------------------------------------10--------------| 
|--0--------------------------------------------------------------| 
|--0--------------------------------------------------------------| 
|--0--------------------------------------------------------------| 
| 
|  T   T   T   T   T   T   T   T   T   T   T   T   T   T   T   T 
|-----------------------------------------------------------------| 
|-----------------------------------------------------------------| 
|-<7>-<7>---------<7>-<7>---------<7>-<7>---------<7>-<7>---------| 
|---------<7>-<7>---------<7>-<7>---------<7>-<7>---------<7>-<7>-| 
|-----------------------------------------------------------------| 
|-----------------------------------------------------------------| 
 
 
 3/8 
   S       S        E                S       S 
|-----------------13------------------------------| 
|-10------------------------------10--------------| 
|---------10------------------------------10------| 
|-------------------------------------------------| 
|-------------------------------------------------| 
|-------------------------------------------------| 
| 
|  T   T   T   T   T   T   T   T   T   T   T   T 
|-------------------------------------------------| 
|-------------------------------------------------| 
|-<7>-<7>---------<7>-<7>---------<7>-<7>---------| 
|---------<7>-<7>---------<7>-<7>---------<7>-<7>-| 
|-------------------------------------------------| 
|-------------------------------------------------| 
 
 
 4/8 
    E                S       S       S       S       S       S 
|-----------------15--------------15----------------------12------| 
|-------------------------13--------------13----------------------| 
|-------------------------------------------------10--------------| 
|--0--------------------------------------------------------------| 
|--0--------------------------------------------------------------| 
|--0--------------------------------------------------------------| 
| 
|  T   T   T   T   T   T   T   T   T   T   T   T   T   T   T   T 
|-----------------------------------------------------------------| 
|-----------------------------------------------------------------| 
|-<7>-<7>---------<7>-<7>---------<7>-<7>---------<7>-<7>---------| 
|---------<7>-<7>---------<7>-<7>---------<7>-<7>---------<7>-<7>-| 
|-----------------------------------------------------------------| 
|-----------------------------------------------------------------| 
 
 
 3/8 
   S       S        E                S       S 
|-----------------13---------------------------------| 
|-13------------------------------13-----------------| 
|---------10------------------------------10---------| 
|----------------------------------------------------| 
|----------------------------------------------------| 
|----------------------------------------------------| 
| 
|  T   T   T   T   T   T   T   T   T   T   T   T 
|----------------------------------------------------| 
|----------------------------------------------------| 
|-<7>-<7>---------<7>-<7>---------<7>-<7>------------| 
|---------<7>-<7>---------<7>-<7>---------<7>-<7>----| 
|----------------------------------------------------| 
|----------------------------------------------------| 
 
 
 4/8 
    E                S       S       S       S       S       S 
|-----------------15--------------15----------------------12------| 
|-------------------------12--------------12----------------------| 
|-------------------------------------------------10--------------| 
|--0--------------------------------------------------------------| 
|--0--------------------------------------------------------------| 
|--0--------------------------------------------------------------| 
| 
|  T   T   T   T   T   T   T   T   T   T   T   T   T   T   T   T 
|-----------------------------------------------------------------| 
|-----------------------------------------------------------------| 
|-<7>-<7>---------<7>-<7>---------<7>-<7>---------<7>-<7>---------| 
|---------<7>-<7>---------<7>-<7>---------<7>-<7>---------<7>-<7>-| 
|-----------------------------------------------------------------| 
|-----------------------------------------------------------------| 
 
 
 3/8 
   S       S        E                S       S 
|-----------------13------------------------------| 
|-12------------------------------12--------------| 
|---------10------------------------------10------| 
|-------------------------------------------------| 
|-------------------------------------------------| 
|-------------------------------------------------| 
| 
|  T   T   T   T   T   T   T   T   T   T   T   T 
|-------------------------------------------------| 
|-------------------------------------------------| 
|-<7>-<7>---------<7>-<7>---------<7>-<7>---------| 
|---------<7>-<7>---------<7>-<7>---------<7>-<7>-| 
|-------------------------------------------------| 
|-------------------------------------------------| 
 
 
 4/8 
    E                S       S       S       S       S       S 
|-----------------15--------------15----------------------12------| 
|-------------------------11--------------11----------------------| 
|-------------------------------------------------10--------------| 
|--0--------------------------------------------------------------| 
|--0--------------------------------------------------------------| 
|--0--------------------------------------------------------------| 
| 
|  T   T   T   T   T   T   T   T   T   T   T   T   T   T   T   T 
|-----------------------------------------------------------------| 
|-----------------------------------------------------------------| 
|-<7>-<7>---------<7>-<7>---------<7>-<7>---------<7>-<7>---------| 
|---------<7>-<7>---------<7>-<7>---------<7>-<7>---------<7>-<7>-| 
|-----------------------------------------------------------------| 
|-----------------------------------------------------------------| 
 
 
 3/8 
   S       S        E                S       S 
|-----------------13---------------------------------| 
|-11------------------------------11-----------------| 
|---------10------------------------------10---------| 
|----------------------------------------------------| 
|----------------------------------------------------| 
|----------------------------------------------------| 
| 
|  T   T   T   T   T   T   T   T   T   T   T   T 
|----------------------------------------------------| 
|----------------------------------------------------| 
|-<7>-<7>---------<7>-<7>---------<7>-<7>------------| 
|---------<7>-<7>---------<7>-<7>---------<7>-<7>----| 
|----------------------------------------------------| 
|----------------------------------------------------| 
 
 
 4/4 
  Gtr V 
              ~~~~                                  ~~~~                 PM--| 
                                                                         |-3-| 
  E. E. Q    E  E S S   E. E. E.  E. Q    E. E. Q    E  E S S   E. E. E.  E.  E E E  
|-------------------|-----------------|-------------------|--------------------| 
|-------------------|-----------------|-------------------|--------------------| 
|-4--4--4-----------|-4--4--4------4--|-4--4--4-----------|-4--4--4------------| 
|-4--4--4--/5-4-----|-4--4--4------4--|-5--5--5--/7-4-----|-4--4--4------------| 
|-2--0--2-------5-x-|-2--0--2--/4--0--|-2--0--2-------5-x-|-2--0--2--/4--0-0-0-| 
|-2--0--2---------x-|-2--0--2--/4--0--|-2--0--2---------x-|-2--0--2--/4--0-0-0-| 
 
  "Falling far beyond..." 
 
 
 4/4 
              ~~~~                                  ~~~~ 
  E. E. Q    E  E S S   E. E. E.  E. Q    E. E. Q    E  E S S 
|-------------------|-----------------|-------------------| 
|-------------------|-----------------|-------------------| 
|-4--4--4-----------|-4--4--4------4--|-4--4--4-----------| 
|-4--4--4--/5-4-----|-4--4--4------4--|-5--5--5--/7-4-----| 
|-2--0--2-------5-x-|-2--0--2--/4--0--|-2--0--2-------5-x-| 
|-2--0--2---------x-|-2--0--2--/4--0--|-2--0--2---------x-| 
 
 
 3/4             7/8 
  E. E. E.  E.    S   S   S   S   S   S   S   S   S   S   S  E. 
|--------------|------------------------------------------------| 
|--------------|------------------------------------------------| 
|-4--4--4------|------------------------------------------------| 
|-4--4--4------|-<4>---------<4>-----<4>-----<4>---------<4>----| 
|-2--0--2--/4--|------------------------------------------------| 
|-2--0--2--/4--|-----<4>-<4>-----<4>-----<4>-----<4>-<4>--------| 
 
 
    Gtr V 
       PM|              PM|  ~~           PM       PM--| 
                                                   |-3-| 
     S S S  S S  S S  S S S  Q    S  S  S S S  S S T T T  S  S Q 
||------------------------------|---------------------------------| 
||o-----------------------------|---------------------------------| 
||---9------9----9----9------9--|----7--7------7----------7--7----| 
||---7------7----7----7------7--|---10-10-----10---------10-10----| 
||o----0-0--------------0-0-----|-0-------0--------0-0-0-------0--| 
||-----0-0--------------0-0-----|-0-------0--------0-0-0-------0--| 
| 
|    "Stealing meaning..." 
| 
|   Gtr VI 
|      PM|              PM|  ~~           PM       PM--| 
|                                                  |-3-| 
|    S S S  S S  S S  S S S  Q    S  S  S S S  S S T T T  S  S Q 
||------------------------------|---------------------------------| 
||o-----------------------------|---------------------------------| 
||--14-----14---14---14-----14--|---12-12-----12---------12-12----| 
||--12-----12---12---12-----12--|---10-10-----10---------10-10----| 
||o----0-0--------------0-0-----|-0-------0--------0-0-0-------0--| 
||-----0-0--------------0-0-----|-0-------0--------0-0-0-------0--| 
 
 
     PM|              PM|  ~~           PM       PM--| 
                                                 |-3-| 
   S S S  S S  S S  S S S  Q    S  S  S S S  S S T T T  S  S Q 
|-----------------------------|-----------------------------------|| 
|-----------------------------|----------------------------------o|| 
|--9------9----9----9------9--|---10-10-----10----------9--9------|| 
|--9------9----9----9------9--|----8--8------8----------8--8------|| 
|----0-0--------------0-0-----|-0-------0--------0-0-0-------0---o|| 
|----0-0--------------0-0-----|-0-------0--------0-0-0-------0----|| 
| 
|    PM|              PM|  ~~           PM       PM--| 
|                                                |-3-| 
|  S S S  S S  S S  S S S  Q    S  S  S S S  S S T T T  S  S Q 
|-----------------------------|-----------------------------------|| 
|-----------------------------|----------------------------------o|| 
|-12-----12---14---14-----14--|---14-14-----14---------12-12------|| 
|-12-----12---12---12-----12--|---14-14-----12---------12-12------|| 
|----0-0--------------0-0-----|-0-------0--------0-0-0-------0---o|| 
|----0-0--------------0-0-----|-0-------0--------0-0-0-------0----|| 
 
 
 4/4 
  Gtr V 
              ~~~~                                  ~~~~                 PM--| 
                                                                         |-3-| 
  E. E. Q    E  E S S   E. E. E.  E. Q    E. E. Q    E  E S S   E. E. E.  E.  E E E  
|-------------------|-----------------|-------------------|--------------------| 
|-------------------|-----------------|-------------------|--------------------| 
|-4--4--4-----------|-4--4--4------4--|-4--4--4-----------|-4--4--4------------| 
|-4--4--4--/5-4-----|-4--4--4------4--|-5--5--5--/7-4-----|-4--4--4------------| 
|-2--0--2-------5-x-|-2--0--2--/4--0--|-2--0--2-------5-x-|-2--0--2--/4--0-0-0-| 
|-2--0--2---------x-|-2--0--2--/4--0--|-2--0--2---------x-|-2--0--2--/4--0-0-0-| 
 
  "Fallin far beyond..." 
 
 
 4/4                                                       6/8 
              ~~~~                                  ~~~~ 
  E. E. Q    E  E S S   E. E. E.  E. Q    E. E. Q    E  E S S   E. E. E.  E. 
|-------------------|-----------------|-------------------|---------------| 
|-------------------|-----------------|-------------------|---------------| 
|-4--4--4-----------|-4--4--4------4--|-4--4--4-----------|-4--4--4-------| 
|-4--4--4--/5-4-----|-4--4--4------4--|-5--5--5--/7-4-----|-4--4--4-------| 
|-2--0--2-------5-x-|-2--0--2--/4--0--|-2--0--2-------5-x-|-2--0--2--/4---| 
|-2--0--2---------x-|-2--0--2--/4--0--|-2--0--2---------x-|-2--0--2--/4---| 
 
 
   7/8 
    Gtr III 
     E   S  S  S  S  S   E   S   E  E   E   S  S  S  S  S   E   S   E   S S 
||----15-15-15-12-12-12-13-13-13-|---15-15-15-12-12-12-13-13-13---| 
||o---10-10-10-10-10-10-10-10-10-|---13-13-13-13-13-13-13-13-13---| 
||----10-10-10-10-10-10-10-10-10-|---10-10-10-10-10-10-10-10-10---| 
||--0----------------------------|-0----------------------------0-| 
||o-0----------------------------|-0----------------------------0-| 
||--0----------------------------|-0----------------------------0-| 
| 
|   Gtr IV 
|    E   S  S  S  S  S   E   S   E  E   E   S  S  S  S  S   E   S   E  E  
||-------------------------------|--------------------------------| 
||o------------------------------|--------------------------------| 
||-----9--9--9s=5--5--5S=7--7--7-|----9--9--9s=5--5--5S=7--7--7---| 
||-------------------------------|--------------------------------| 
||o----7--7--7s=3--3--3S=5--5--5-|----7--7--7s=3--3--3S=5--5--5---| 
||--0----------------------------|-0------------------------------| 
 
 
                                                              |-3-| 
   E   S  S  S  S  S   E   S   E  E   E   S  S  S  S  S   E   S   E   S T T T 
|---15-15-15-12-12-12-13-13-13-|---15-15-15-12-12-12-13-13-13--------|| 
|---12-12-12-12-12-12-12-12-12-|---11-11-11-11-11-11-11-11-11-------o|| 
|---10-10-10-10-10-10-10-10-10-|---10-10-10-10-10-10-10-10-10--------|| 
|-0----------------------------|-0----------------------------0-0-0--|| 
|-0----------------------------|-0----------------------------0-0-0-o|| 
|-0----------------------------|-0----------------------------0-0-0--|| 
| 
|  E   S  S  S  S  S   E   S   E  E   E   S  S  S  S  S   E   S   E  E  
|------------------------------|-------------------------------------|| 
|------------------------------|------------------------------------o|| 
|----9--9--9s=5--5--5S=7--7--7-|----9--9--9s=5--5--5S=7--7--7--------|| 
|------------------------------|-------------------------------------|| 
|----7--7--7s=3--3--3S=5--5--5-|----7--7--7s=3--3--3S=5--5--5-------o|| 
|-0----------------------------|-0-----------------------------------|| 
 
 
 4/4 
  Gtr I 
  S S S E S S S S E S S S  E     S  S S E S S S S E S S S S S 
|---------------------------|-------------------------------| 
|---------------------------|-------------------------------| 
|---------------------------|-------------------------------| 
|-----0-2-------2h3---3-----|-------5-7-------7s8---8-------| 
|---0-----0---0---------0---|-----5-----5---5---------5-----| 
|-0---------0-------0-----0s|==5----------5-------5-----5-7-| 
| 
|                              > 
| W                           +W 
|---------------------------|-------------------------------| 
|---------------------------|-------------------------------| 
|---------------------------|-------------------------------| 
|-0-------------------------|-(0)---------------------------| 
|-0-------------------------|-(0)---------------------------| 
|-0-------------------------|-(0)---------------------------| 
 
 
 4/4 
   S S S  E S S S  S  E S  S  S S S    S S S E S S  S  S S S E S  E  
|------------------------------------|-----------------------------| 
|------------------------------------|-----------------------------| 
|------------------------------------|-----------------------0-----| 
|------8-10-------10s12---12-10-8----|-----3-5-------------2---2---| 
|----8------8---8-----------------8-|---3-----3---------0-------0-| 
|-/8----------8---------8------------|-3---------3-(0)-2-----------| 
 
 
   4/4 
     S  S  S   E       S S S S E S S S  E  
||-------------------------------------| 
||o------------------------------------| 
||-------------------------------------| 
||---------0--2------------2h3---3-----| 
||o-----0------------0---0---------0---| 
||---0-----------------0-------0-----0s| 
| 
|   Gtr II 
|    S  S  S  S  +H. 
||--13p12------------------------------| 
||o-------15---------------------------| 
||-----------14-(14)-------------------| 
||-------------------------------------| 
||o------------------------------------| 
||-------------------------------------| 
 
 
   S  S  S   E   S  S  S   S  E S S S S S 
|----------------------------------------| 
|----------------------------------------| 
|----------------------------------------| 
|--------5--7------------7s=8---8--------| 
|-----5--------5-----5------------5------| 
|--5--------------5-----------5-----5-7--| 
| 
|  S  S  S  E.    S  S  +H 
|-13p12----------------------------------| 
|-------15-------15----------------------| 
|----------14-------15-(15)--------------| 
|----------------------------------------| 
|----------------------------------------| 
|----------------------------------------| 
 
 
   S  S  S   E       S S S  S  E S  S  S S S 
|-------------------------------------------| 
|-------------------------------------------| 
|-------------------------------------------| 
|--------8-10------------10s12---12-10-8----| 
|-----8------------8---8-----------------8-| 
|-/8-----------------8---------8------------| 
| 
|  S  S  S  S  +H. 
|-13p12-------------------------------------| 
|-------15----------------------------------| 
|----------15-(15)--------------------------| 
|-------------------------------------------| 
|-------------------------------------------| 
|-------------------------------------------| 
 
 
   S  S  S  E S S   S   S  S  S  E S  E        5x 
|--------------------------------------------|| 
|-------------------------------------------o|| 
|--------------------------------0-----------|| 
|--------3--5-----------------2----2---------|| 
|-----3-------3------------0---------0------o|| 
|--3------------3--(0)--2--------------------|| 
| 
|  S  S  S  Q      +S   S  S  S  Q      +S   5x 
|-13p12----------------13p12-----------------|| 
|-------13-------------------13-------------o|| 
|----------14-----(14)----------12-----(12)--|| 
|--------------------------------------------|| 
|-------------------------------------------o|| 
|--------------------------------------------|| 
 
 
   4/4                  7/8 
    Gtr III 
                               ~  PM----------| 
                                          |-3-| 
    E. E. Q.   S S S S   E. E. Q  T T T T S S S 
||---------------------|------------------------| 
||o--------------------|------------------------| 
||--2--2--2----2-2-2-2-|-2--2--2--------------2-| 
||--5--5--3----2-3-2-3-|-5--5--3--------2-3-5---| 
||o-0--0--0----0-0-0-0-|-0--0--0--0-3-5---------| 
||--0--0--0----0-0-0-0-|-0--0--0----------------| 
 
 
                      1.                          2. 
 4/4                  7/8                        7/8 
                             ~  PM----------|           ~ 
                                        |-3-| 
  E. E. Q.   S S S S   E. E. Q  T T T T S S S     E. E. H 
|--------------------|-------------------------||------------| 
|-3--3--3----3-3-3-3-|-3--3--3----------------o||-3--3--3----| 
|-3--3--2----0-2-0-2-|-3--3--2--2-3-2-0--------||-3--3--2----| 
|-0--0--0----0-0-0-0-|-0--0--0----------3-2-0--||-0--0--0----| 
|-0--0--0----0-0-0-0-|-0--0--0----------------o||-0--0--0----| 
|-0--0--0----0-0-0-0-|-0--0--0-----------------||-0--0--0----| 
 
 
 4/4 
  Gtr V 
              |--------12:8---------|               |--------12:8---------| 
  E. E. E. E. T T T T T T T T T T T T   E. E. E. E. T T T T T T T T T T T T 
|-------------------------------------|--------------------------------------| 
|-------------------------------------|--------------------------------------| 
|----2--3--3--2h3p2p0-----------------|----2--3--3--2h3p2p0------------------| 
|----0--0--0----------3p2p0-----------|----0--0--0----------3p2p0------------| 
|----0--0--0----------------3p1p0-----|----0--0--0----------------3p1p0------| 
|-0-------------------------------3p2p|=0-------------------------------3p2--| 
 
 
 4/4 
  PM--|   PM|   PM|   PM| 
                          |--------12:8---------| 
  S S S S S S S S S S S S T T T T T T T T T T T T 
|-------------------------------------------------| 
|-------------------------------------------------| 
|-------2-----3-----3-----2h3p2p0-----------------| 
|-------0-----0-----0-------------3p2p0-----------| 
|-0-0-0-0-0-0-0-0-0-0-0-0---------------3p1p0-----| 
|-0-0-0---0-0---0-0---0-0---------------------3p2p| 
 
 
  PM--|   PM|   PM|   PM| 
                          |--------12:8---------| 
  S S S S S S S S S S S S T T T T T T T T T T T T 
|-------------------------------------------------| 
|-------------------------------------------------| 
|-------2-----3-----3-----2h3p2p0-----------------| 
|-------0-----0-----0-------------3p2p0-----------| 
|-0-0-0-0-0-0-0-0-0-0-0-0---------------3p1p0-----| 
|-0-0-0---0-0---0-0---0-0---------------------3p2-| 
 
 
            7/8 
                                                     > 
  W          +H..         +H..         +H..         +H.. 
|----------|------------|------------|------------|---------| 
|----------|------------|------------|------------|---------| 
|----------|------------|------------|------------|---------| 
|-0--------|-(0)--------|-(0)--------|-(0)--------|-(0)-----| 
|-0--------|-(0)--------|-(0)--------|-(0)--------|-(0)-----| 
|-0--------|-(0)--------|-(0)--------|-(0)--------|-(0)-----| 
 
 
  Gtr III 
  S S  S  E    S  S  S S  S  E    S S    S  S  S  E    S S S S S  E     S S 
|--------0----------------0-------|----------0-------------0--------| 
|------3-----3----------3-----3---|--------3-----3-------3------3---| 
|---2-----------2----2----------2-|-----2----------2---2----------2-| 
|-0-------------------------------|--3---------------5--------------| 
|------------------3--------------|---------------------------------| 
|---------------------------------|---------------------------------| 
| 
| "I am the waking..." 
| 
| Gtr IV 
|  E     S S  E     E.      S S  E    S   +E     S S  E    S S S S S   E    S 
|---------------------------------|---------------------------------| 
|----------8----------------8-----|------------8-------------10-----| 
|--------9-----10---------9-----9-|-(9)------9-----9-7-----7------7-| 
|-----10---------------10---------|-------10-------------9----------| 
|---------------------------------|---------------------------------| 
|---------------------------------|---------------------------------| 
 
 
   S  S  S  E    S  S  S S  S  E    S S    S  S  S  E    S S S S S S  S S S 
|----------0----------------0-------|----------0----------------------| 
|--------3-----3----------3-----3---|--------3-----3------------------| 
|-----2-----------2----2----------2-|-----2----------2---2---2----0---| 
|--0--------------------------------|--3---------------5---3----2-----| 
|--------------------3--------------|-------------------------------3-| 
|-----------------------------------|---------------------------------| 
| 
| +E     S S  E     E.      S S  E    S   +E     S S  E    S S S S S   E    S 
|-----------------------------------|---------------------------------| 
|------------8----------------8-----|------------8-------------10-----| 
|-(7)------9-----10---------9-----9-|-(9)------9-----9-7-----7------7-| 
|-------10---------------10---------|-------10-------------9----------| 
|-----------------------------------|---------------------------------| 
|-----------------------------------|---------------------------------| 
 
 
     S  S  S  E    S  S  S S  S  E    S S    S  S  S  E    S S S S S  E     S S  6x 
||-----------0----------------0-------|----------0-------------0---------|| 
||o--------3-----3----------3-----3---|--------3-----3-------3------3---o|| 
||------2-----------2----2----------2-|-----2----------2---2----------2--|| 
||---0--------------------------------|--3---------------5---------------|| 
||o--------------------3--------------|---------------------------------o|| 
||------------------------------------|----------------------------------|| 
| 
|   +E     S S  E     E.      S S  E    S   +E     S S  E    S S S S S   E    S  6x 
||------------------------------------|----------------------------------|| 
||o------------8----------------8-----|------------8-------------10-----o|| 
||--(7)------9-----10---------9-----9-|-(9)------9-----9-7-----7------7--|| 
||--------10---------------10---------|-------10-------------9-----------|| 
||o-----------------------------------|---------------------------------o|| 
||------------------------------------|----------------------------------|| 
 
 
     E   S  E   E     E   S  E   E      E    S  E   E   E    S  E    E  
||-------0--------------0-------|--------0-------------0---------|| 
||o------3--------------3-------|--------3-------------3--------o|| 
||-----2-----2--------2-----2---|------2-----2-------2------2----|| 
||--0---------------------------|--------------------------------|| 
||o----------------3------------|-------------------------------o|| 
||------------------------------|--3-------------5---------------|| 
| 
|    E   S S  E     E.    S S  E    S   +E   S S  E    S S S S S   E    S 
||------------------------------|--------------------------------|| 
||o--------8--------------8-----|----------8-------------10-----o|| 
||--7----9-----10-------9-----9-|-(9)----9-----9-7-----7------7--|| 
||----10-------------10---------|-----10-------------9-----------|| 
||o-----------------------------|-------------------------------o|| 
||------------------------------|--------------------------------|| 
 
 
    Gtr V 
     E    S   E  E E    S   E  E   E    S   E   E E    S    E   E  
||--------------------------|-----------------------------|| 
||o-------------------------|----------------------------o|| 
||--------/9-7-------/9-7-|-------/9-/10-------/10-/12--|| 
||--------------------------|-----------------------------|| 
||o-------/7-5-------/7-5-|-------/7--/8--------/8-/10-o|| 
||--------------------------|-----------------------------|| 
| 
|   Gtr VI 
|   Q..         Q..           Q..          Q.. 
||--------------------------|-----------------------------|| 
||o-------------------------|----------------------------o|| 
||--------------5-----------|-----------------------------|| 
||--0-----------5-----------|-3------------5--------------|| 
||o-0-----------3-----------|-3------------5-------------o|| 
||--0-----------------------|-3------------5--------------|| 
 
 
      S  S  S  S  S  S S   S  S  S  S  S  S S 
||--------------------------------------------| 
||o-------------------------------------------| 
||--/14-14-14-14s17-17---/14-14-14-14s12-12---| 
||--------------------------------------------| 
||o-/12-12-12-12s15-15---/12-12-12-12s10-10---| 
||--------------------------------------------| 
| 
|     PM---|               PM---| 
|     S  S  S  Q           S  S  S  Q 
||--------------------------------------------| 
||o-------------------------------------------| 
||----------------------------------5---------| 
||-------------0--------------------5---------| 
||o------------0-----------3--3--3--3---------| 
||----0--0--0--0------------------------------| 
 
 
    S  S  S  S  S  S S   S  S  S  S  S  S S     H.. 
|--------------------------------------------||--------| 
|-------------------------------------------o||--------| 
|-/14-14-14-14s17-17---/16-16-16-16s12-12----||--------| 
|--------------------------------------------||--------| 
|-/12-12-12-12s15-15---/14-14-14-14s10-10---o||--------| 
|--------------------------------------------||--------| 
| 
|   PM---|               PM---| 
|   S  S  S  Q           S  S  S  Q             H.. 
|--------------------------------------------||--------| 
|-------------------------------------------o||--------| 
|--------------------------------------------||--------| 
|------------3--------------------5----------||--------| 
|------------3--------------------5---------o||--------| 
|---3--3--3--3-----------5--5--5--5----------||--------| 
 
 
   4/4 
    Gtr V 
                ~~~~ 
    E. E. Q    E  E S S   E. E. E.  E. Q 
||--------------------|-----------------| 
||o-------------------|-----------------| 
||--4--4--4-----------|-4--4--4------4--| 
||--4--4--4--/5-4-----|-4--4--4------4--| 
||o-2--0--2-------5-x-|-2--0--2--/4--0--| 
||--2--0--2---------x-|-2--0--2--/4--0--| 
 
 
              ~~~~                 PM--| 
                                   |-3-| 
  E. E. Q    E  E S S   E. E. E.  E.  E E E  
|-------------------|----------------------|| 
|-------------------|---------------------o|| 
|-4--4--4-----------|-4--4--4--------------|| 
|-5--5--5--/7-4-----|-4--4--4--------------|| 
|-2--0--2-------5-x-|-2--0--2--/4--0-0-0--o|| 
|-2--0--2---------x-|-2--0--2--/4--0-0-0---|| 
 
 
   4/4 
    S E S E S S +H       S E S E S E S E S E. 
||---------------------|----------------------| 
||o--------------------|----------------------| 
||----4---4---4-(4)----|---4---4---4---4---4--| 
||----4---4---4-(4)----|---4---4---4---4---4--| 
||o---2---0---2-(2)----|---2---0---2---4---0--| 
||----2---0---2-(2)----|---2---0---2---4---0--| 
 
 
  S E S E S S +H       S E S E S E S E S E. 
|--------------------|-------------------------|| 
|--------------------|------------------------o|| 
|---4---4---4-(4)----|---4---4---4---4---4-----|| 
|---4---4---4-(4)----|---4---4---4---4---4-----|| 
|---2---0---2-(2)----|---2---0---2---4---0----o|| 
|---2---0---2-(2)----|---2---0---2---4---0-----|| 
 
_______________________________________________________ 
Contribuição: Rodrigo Oki Murai([email protected]) 

		  

Full key step upFull key step up
Half key step upHalf key step up
Half key step downHalf key step down
Full key step downFull key step down
hide glossary

See also:

tabs Dire Straits - Brothers in Arms tabs The Shadows - Apache tabs Status Quo - Whatever you want tabs Yes - Roundabout tabs Dire Straits - Sultans of Swing tabs Queen - Bohemian Rhapsody
e-chords

Other versions:

tabs Pain of Salvation - The Perfect Element
auto scroll beats size up size down change color hide chords drawings
tab show chords e-chords YouTube Clip e-chords hide all tabs e-chords go to top tab

share