Pain of Salvation

Second Love

Pain of Salvation

tabs Expert expert

save to print version add songbook text version e-mail correct tuner
chordsukulelecavacokeyboardtabbassdrumsharmonicaflute Guitar Pro
close

there isn't a video lesson for this song

chords

Second Love

	  		 
   Gtr I 
  S S S S S  S S S S S S S S S S S    S  S S S S  S S S S S S S S S S S 
|----------------------------------|-------------------------------------| 
|-----1---0------------1---0-------|-------1---0------------1---0--------| 
|-------2----2---2-------2---2-----|---------2----2---2-------2---2------| 
|---2----------2-----2---------2---|-----2----------2-----2---------2----| 
|-0----------------0---------------|-------------------------------------| 
|--------------------------------0-|--1-----------------1-------------3--| 
| 
| Gtr II 
|  E   E    Q.            E    Q         +E     E    Q.            E    Q 
|----------------------------------|-------------------------------------| 
|-----5---3------------5---3-------|-(3)---5---3------------5---3--------| 
|----------------------------------|-------------------------------------| 
|----------------------------------|-------------------------------------| 
|----------------------------------|-------------------------------------| 
|----------------------------------|-------------------------------------| 
 
 
   S  S S S S  S S S S S S S S S S S    S  S S S S  S S S S S S S Q 
|------------------------------------|--------------------------------| 
|-------1---0------------1---0-------|-------1---0------------1---0---| 
|---------2----2---2-------2---2-----|---------2----2---2-------2-----| 
|-----2----------2-----2---------2---|-----2----------2-----2---------| 
|--0-----------------0---------------|--------------------------------| 
|----------------------------------0-|--1-----------------1-----------| 
| 
| +E     E    Q.            E    Q         +E     E    Q.            E    Q 
|------------------------------------|--------------------------------| 
|-(3)---5---3------------5---3-------|-(3)---5---3------------5---3---| 
|------------------------------------|--------------------------------| 
|------------------------------------|--------------------------------| 
|------------------------------------|--------------------------------| 
|------------------------------------|--------------------------------| 
 
 
    S  S S S S S S S S S S S S S S S     S  S S S S S S  S  S S S S S S S S 
|------------------------------0-----|------------3-------------------------| 
|----------0h1-------------0h1---1---|----------0---0-------------3---1---0-| 
|--------2-----2---------2-----------|--------0-------0---------0---0---0---| 
|------2---------2-----2-------------|------0-----------(0)---0-------------| 
|---0--------------0-0---------------|--------------------------------------| 
|----------------------------------0-|---3------------------3---------------| 
| 
|   W                                    W 
|-^-5--------------------------------|-^-3----------------------------------| 
|-^-5--------------------------------|-^-3----------------------------------| 
|-^-5--------------------------------|-^-4----------------------------------| 
|-^(7)-------------------------------|-^(5)---------------------------------| 
|------------------------------------|--------------------------------------| 
|------------------------------------|--------------------------------------| 
 
 
    S  S S S S S S S   S  S S S S S S S     S  S S S S S S S S S S S S S S S 
|--------------0----------------1-------|----------0-------0h1-------3p1-----| 
|----------0h1---1------------1---1-----|--------3---3---3-----3---------3---| 
|--------2------------------2-------2---|------2-------2---------2---------2-| 
|------2------------------3-----------3-|---0----------------------0---------| 
|---0-----------------------------------|------------------------------------| 
|------------------0---1----------------|------------------------------------| 
| 
|   H                  H                    W 
|-^-5----------------^-1----------------|-^-0--------------------------------| 
|-^-5----------------^-1----------------|-^-3--------------------------------| 
|-^-5----------------^-2----------------|-^-2--------------------------------| 
|-^(7)---------------^(3)---------------|-^(0)-------------------------------| 
|---------------------------------------|------------------------------------| 
|---------------------------------------|------------------------------------| 
 
 
    S  S S S S S S S S S S S S S S S     S  S S S S S S  S  S S S S S S S S 
|--------------0-------------0-------|------------3---------------3---------| 
|----------0h1---1---------1---1-----|----------0---0---------------0-------| 
|--------2---------2-----2-------2---|--------0-------0---------0-----0-----| 
|------2---------------2-------------|------0-----------(0)---0---------0---| 
|---0----------------0---------------|--------------------------------------| 
|----------------------------------0-|---3------------------3-------------3-| 
| 
|   W                                    W 
|-^-5--------------------------------|-^-3----------------------------------| 
|-^-5--------------------------------|-^-3----------------------------------| 
|-^-5--------------------------------|-^-4----------------------------------| 
|-^(7)-------------------------------|-^(5)---------------------------------| 
|------------------------------------|--------------------------------------| 
|------------------------------------|--------------------------------------| 
 
 
    S  S S S S S S S   S  S S S S S S S     S  S S S S S S S S S S S S S S S 
|--------------0----------------1-------|----------0-------0h1-------3p1-----| 
|----------0h1---1------------1---1-----|--------3---3---3-----3---------3---| 
|--------2------------------2-------2---|------2-------2---------2---------2-| 
|------2------------------3-----------3-|---0----------------------0---------| 
|---0-----------------------------------|------------------------------------| 
|------------------0---1----------------|------------------------------------| 
| 
|   H                  H                    W 
|-^-5----------------^-1----------------|-^-0--------------------------------| 
|-^-5----------------^-1----------------|-^-3--------------------------------| 
|-^-5----------------^-2----------------|-^-2--------------------------------| 
|-^(7)---------------^(3)---------------|-^(0)-------------------------------| 
|---------------------------------------|------------------------------------| 
|---------------------------------------|------------------------------------| 
 
 
      S  S S S S S S S   S  S S S S S S S 
||-------------1------------------3-------| 
||o----------1---1--------------0---0-----| 
||---------2-------2----------0-------0---| 
||-------3-----------3------0-----------0-| 
||o---------------------------------------| 
||----1------------------3----------------| 
| 
|     H                  H 
||--^-1----------------^-3----------------| 
||o-^-1----------------^-3----------------| 
||--^-2----------------^-4----------------| 
||--^(3)---------------^(5)---------------| 
||o---------------------------------------| 
||----------------------------------------| 
 
 
    S  S S S S S S S   S  S S S S S S S 
|----------------------------------------| 
|----------1-------1----------1-------1--| 
|--------0-------0----------2-------2----| 
|------2-------0----------2-------2------| 
|---3--------2---------0-----------------| 
|-------------------------------3--------| 
| 
|   ~~~~ 
|   H                  H 
|-^-0----------------^-0-----------------| 
|-^-1----------------^-1-----------------| 
|-^-0----------------^-2-----------------| 
|-^(2)---------------^(2)----------------| 
|-^(3)-----------------------------------| 
|----------------------------------------| 
 
 
    S  S S S S S S S   S  S S S S S S S 
|------------1------------------3-------| 
|----------1---1--------------0---0-----| 
|--------2-------2----------0-------0---| 
|------3-----------3------0-----------0-| 
|---------------------------------------| 
|---1------------------3----------------| 
| 
|   H                  H 
|-^-1----------------^-3----------------| 
|-^-1----------------^-3----------------| 
|-^-2----------------^-4----------------| 
|-^(3)---------------^(5)---------------| 
|---------------------------------------| 
|---------------------------------------| 
| 
|   W 
|---------------------------------------| 
|---------------------------------------| 
|---------------------------------------| 
|---------------------------------------| 
|---------------------------------------| 
|---------------------------------------| 
 
 
 1.                                     2. 
    S  S S S S S S S S S S S S S S S       S  S S S S S S S S S S S  S S  S  S 
|--------------0----------------------||--------------0------------------------| 
|----------0h1---1---3-----1---0-----o||----------1h3---3---3p1----------------| 
|--------2-------------2-----2---2----||--------0---------0-----0---------0----| 
|------2-----------------2---------2--||------2------------------------0-----0-| 
|---0--------------0-----------------o||---3----------------------3--2---------| 
|-------------------------------------||---------------------------------------| 
| 
|   W                                      W 
|-^-0---------------------------------||-^-0-----------------------------------| 
|-^-1--------------------------------o||-^-1-----------------------------------| 
|-^-2---------------------------------||-^-0-----------------------------------| 
|-^(2)--------------------------------||-^(2)----------------------------------| 
|------------------------------------o||-^(3)----------------------------------| 
|-------------------------------------||---------------------------------------| 
| 
|                                    Gtr IV 
|   W                                      H. S                      S    S  S 
|-------------------------------------||----------------------------19---12----| 
|------------------------------------o||------------------------------------13-| 
|-------------------------------------||---------------------------------------| 
|-------------------------------------||---------------------------------------| 
|------------------------------------o||---------------------------------------| 
|-------------------------------------||---------------------------------------| 
 
 
    S  S S S S S  S  S   S S S S S S  S  S 
|--------------0-----------------0---------| 
|----------0h1----1------------1---1-------| 
|--------2-----------2-------2--------2----| 
|------2-------------------2-------------2-| 
|---0--------------------0-----------------| 
|------------------------------------------| 
| 
|   W 
|-^-0--------------------------------------| 
|-^-1--------------------------------------| 
|-^-2--------------------------------------| 
|-^(2)-------------------------------------| 
|------------------------------------------| 
|------------------------------------------| 
| 
|   Q.            S  Q..              S  S 
|------------------------------------------| 
|--12------------12-13---------------13-15-| 
|------------------------------------------| 
|------------------------------------------| 
|------------------------------------------| 
|------------------------------------------| 
 
 
    S  S S  S  S S   S   S   S S S S S S  S S 
|--------------3---------------------3--------| 
|-----------0----0-------0---------0---0----0-| 
|--------0-----------0-----------0--------0---| 
|------0-----------------------0--------------| 
|---------------------------------------------| 
|---3------------------------3----------------| 
| 
|   W 
|-^-3-----------------------------------------| 
|-^-3-----------------------------------------| 
|-^-4-----------------------------------------| 
|-^(5)----------------------------------------| 
|---------------------------------------------| 
|---------------------------------------------| 
| 
|  +E.      E.       S   Q..               E  
|---------------------------------------------| 
|-(15)----------------------------------------| 
|----------14------(14)-12---------------12---| 
|---------------------------------------------| 
|---------------------------------------------| 
|---------------------------------------------| 
 
 
    S  S S  S S S  S  S    S  S S S S S  S  S 
|---------------0-------------------1---------| 
|-----------0h1----1--------------1---1-------| 
|--------2-----------(2)--------2--------2----| 
|------2----------------------3-------------3-| 
|---0-----------------------------------------| 
|--------------------------1------------------| 
| 
|   H                      H 
|-^-0--------------------^-1------------------| 
|-^-1--------------------^-1------------------| 
|-^-2--------------------^-2------------------| 
|-^(2)-------------------^(3)-----------------| 
|---------------------------------------------| 
|---------------------------------------------| 
| 
|   E.      E.      E        Q.            S  S 
|---------------------------------------------| 
|----------12-----13------10------------------| 
|--14------14-------------12------------12-10-| 
|----------14---------------------------------| 
|---------------------------------------------| 
|---------------------------------------------| 
 
 
    S  S S S S  S S S  S  S   S  S S S S S 
|----------0--------0h=1-----------1-------| 
|--------3---3----3-------3----------3-----| 
|------2--------2-------------2--------2---| 
|---0----------------------------0-------0-| 
|------------------------------------------| 
|------------------------------------------| 
| 
|   H                 +E      Q. 
|-^-0-----------------(0)---^-5------------| 
|-^-3-----------------(3)---^-6------------| 
|-^-2-----------------(2)---^-7------------| 
|-^(0)----------------(0)---^(0)-----------| 
|------------------------------------------| 
|------------------------------------------| 
| 
|   Q        Q.                E    E   E  
|------------------------------------------| 
|----------------------------10------------| 
|---9------------------------10----9---9---| 
|------------------------------------------| 
|------------------------------------------| 
|------------------------------------------| 
 
 
    S   S S S S S S S S S S S S S  S  S 
|---------------0-------------0---------| 
|-----------0h1---1---------1---1-------| 
|---------2---------2-----2--------2----| 
|-------2---------------2-------------2-| 
|---0-----------------0-----------------| 
|---------------------------------------| 
| 
|   W 
|-^-5-----------------------------------| 
|-^-5-----------------------------------| 
|-^-5-----------------------------------| 
|-^(7)----------------------------------| 
|---------------------------------------| 
|---------------------------------------| 
| 
|   H..                            S  S 
|---------------------------------------| 
|---------------------------------13-15-| 
|---9-----------------------------------| 
|---------------------------------10-12-| 
|---------------------------------------| 
|---------------------------------------| 
 
 
    S  S S  S S S S S S  S  S  S  S  S  S  S 
|-------------3-------------------3-----------| 
|-----------0------------------0-----0--------| 
|--------0--------0---------0-----------0-----| 
|------0--------0---0----0----------------(0)-| 
|---------------------------------------------| 
|---3-----------------3-----------------------| 
| 
|   W 
|-^-3-----------------------------------------| 
|-^-3-----------------------------------------| 
|-^-4-----------------------------------------| 
|-^(5)----------------------------------------| 
|---------------------------------------------| 
|---------------------------------------------| 
| 
|  +E.      Q        E     S  S  S  S  S  S  S 
|---------------------------------------------| 
|-(15)-----10-------8---------10----10-12-13--| 
|--------------------------12----12-----------| 
|-(12)------7-------5---12--------------------| 
|---------------------------------------------| 
|---------------------------------------------| 
 
 
    S  S  S S  S S  S  S    S  S  S S  S S S  S 
|----------------0---------------------1--------| 
|-----------0h=1----1---------------1----1------| 
|---------2-----------(2)---------2--------2----| 
|------2-----------------------3--------------3-| 
|---0-------------------------------------------| 
|---------------------------1-------------------| 
| 
|   H                       H 
|-^-0---------------------^-1-------------------| 
|-^-1---------------------^-1-------------------| 
|-^-2---------------------^-2-------------------| 
|-^(2)--------------------^(3)------------------| 
|-----------------------------------------------| 
|-----------------------------------------------| 
| 
|    E     E    E    E       E     E    E    S  S 
|-----------------------------------------------| 
|--12----10---10---10----------------------8-10-| 
|--------------------------10----10---10--------| 
|-----------------------------------------------| 
|-----------------------------------------------| 
|-----------------------------------------------| 
 
 
    S  S S S S S S S  S S  S S  S S  S S 
|------------0--------1---------3--------| 
|--------3-----3---3----3----3----3------| 
|------2---2-----2---------2---------2---| 
|---0----------------------------------0-| 
|----------------------------------------| 
|----------------------------------------| 
| 
|   W 
|-^-0------------------------------------| 
|-^-3------------------------------------| 
|-^-2------------------------------------| 
|-^(0)-----------------------------------| 
|----------------------------------------| 
|----------------------------------------| 
| 
|    E    E   E   E    E    E    E    E  
|----------------------------------------| 
|----------------------------------------| 
|---9----9---9---9---10---10---10---10---| 
|----------------------------------------| 
|----------------------------------------| 
|----------------------------------------| 
 
 
    S  S S S S S S S   S  S S S S S S S    S S S S S S S S   S  S S S S S S S 
|------------1------------------3-------|-------------------------------------| 
|----------1---1--------------0---0-----|--------1-------1----------1-------1-| 
|--------2-------2----------0-------0---|------0-------0----------2-------2---| 
|------3-----------3------0-----------0-|----2-------0----------2-------2-----| 
|---------------------------------------|--3-------2---------0----------------| 
|---1------------------3----------------|-----------------------------3-------| 
| 
| Gtrs II, IV 
|                                          ~~ 
|   H                  H                   H                 H 
|-^-1----------------^-3----------------|-^3---------------^-5----------------| 
|-^-1----------------^-3----------------|-^5---------------^-5----------------| 
|-^-2----------------^-4----------------|-^5---------------^-5----------------| 
|-^(3)---------------^(5)---------------|------------------^(7)---------------| 
|---------------------------------------|-------------------------------------| 
|---------------------------------------|-------------------------------------| 
 
 
    S  S S S S S S S   S  S S S S S S S     S  S S S S  S  S S S S S S S S S S 
|------------1------------------3-------|--------------------------------------| 
|----------1---1--------------0---0-----|----------0h1---------1p0-------1-----| 
|--------2-------2----------0-------0---|--------2-----(2)---------2-------2---| 
|------3-----------3------0-----------0-|------2-----------2---------2-------2-| 
|---------------------------------------|---0----------------0---------0-------| 
|---1------------------3----------------|--------------------------------------| 
| 
|   H                  H                    W 
|-^-1----------------^-3----------------|-^-0----------------------------------| 
|-^-1----------------^-3----------------|-^-1----------------------------------| 
|-^-2----------------^-4----------------|-^-2----------------------------------| 
|-^(3)---------------^(5)---------------|-^(2)---------------------------------| 
|---------------------------------------|--------------------------------------| 
|---------------------------------------|--------------------------------------| 
 
 
    S  S S S S S S S   S  S S S S S S S 
|------------1------------------3-------| 
|----------1---1--------------0---0-----| 
|--------2-------2----------0-------0---| 
|------3-----------3------0-----------0-| 
|---------------------------------------| 
|---1------------------3----------------| 
| 
|   H                  H 
|-^-1----------------^-3----------------| 
|-^-1----------------^-3----------------| 
|-^-2----------------^-4----------------| 
|-^(3)---------------^(5)---------------| 
|---------------------------------------| 
|---------------------------------------| 
 
 
     S  S S S S S S S   S  S S S S S S S 
|----------------------------------------| 
|-----------1-------1----------1-------1-| 
|---------0-------0----------2-------2---| 
|-------2-------0----------2-------2-----| 
|----3--------2---------0----------------| 
|--------------------------------3-------| 
| 
|    ~~~~~ 
|    H                  H 
|-^--8----------------^-5----------------| 
|-^--8----------------^-5----------------| 
|-^--9----------------^-5----------------| 
|-^(10)---------------^(7)---------------| 
|----------------------------------------| 
|----------------------------------------| 
 
 
    S  S S S S S S S   S  S S S S S S S      E   S S S S S S S S S S Q 
|------------1------------------3-------|-^-0--------------0----------------| 
|----------1---1--------------0---0-----|-^-1--0h1-------1---1-----1--------| 
|--------2-------2----------0-------0---|-^-2------2---2-------2------------| 
|------3-----------3------0-----------0-|-^-2--------2-----------2----------| 
|---------------------------------------|-^(0)------------------------------| 
|---1------------------3----------------|-----------------------------------| 
| 
|   H                  H                    W 
|-^-1----------------^-3----------------|-^-5-------------------------------| 
|-^-1----------------^-3----------------|-^-5-------------------------------| 
|-^-2----------------^-4----------------|-^-5-------------------------------| 
|-^(3)---------------^(5)---------------|-^(7)------------------------------| 
|---------------------------------------|-----------------------------------| 
|---------------------------------------|-----------------------------------| 
| 
|                                                              Gtr III 
|                                                                     |-3-| 
|   W                                       H.                     E. T T T 
|---------------------------------------|-----------------------------------| 
|---------------------------------------|---------------------------------5-| 
|---------------------------------------|-------------------------------5---| 
|---------------------------------------|-----------------------------7-----| 
|---------------------------------------|-----------------------------------| 
|---------------------------------------|-----------------------------------| 
 
 
  Gtr II 
   S  S  S  S  S    S  S  S  S  S  S  S  S  S  S  S 
|---------------------------------------------------| 
|--------1-----0-------------------1-----0----------| 
|-----------2-------2-----2-----------2-----2-----2-| 
|-----2----------------2--------2--------------2----| 
|--0-------------------------0----------------------| 
|---------------------------------------------------| 
| 
| Gtr III 
|  ~~~~~~~~~~~~~~~~ 
|  Q          +S    S  S  S  S  S  S  S  S  S  S  S 
|-------------------------------------------5--8--5-| 
|--8----------(8)-----------------------6----------| 
|-------------------------------5--9--7-------------| 
|----------------------5--9--7----------------------| 
|-------------------7-------------------------------| 
|---------------------------------------------------| 
| 
| Gtr IV 
|  S  S  S  S  S    S  S  S  S  S  S  S  S  S  S  S 
|-------12------------------------12----------------| 
|-------13----15------------------13----15----------| 
|-------------16------------------------16----------| 
|----14----14------14----14----14----14----14----14-| 
|-12------------------12----12----------------12----| 
|---------------------------------------------------| 
 
 
   S  S    S    S   S  S  S  S  S  S  S  S  S    S  S  S 
|---------------------------------------------------------| 
|----------1--------0-----------------1-----0-------------| 
|---------------2------2-----2-----------2-------2-----2--| 
|-----2-------------------2--------2----------------2-----| 
|---------------------------------------------------------| 
|--1----------------------------1-------------------------| 
| 
|  ~~           ~~~ 
|   E     a  S a  E.        S  S  S  S  S  S  E.         S 
|--7----7s=8-------------------10-----8-----7b8r==========| 
|------------8s10------------8----10----10-------------8/-| 
|---------------------------------------------------------| 
|---------------------------------------------------------| 
|---------------------------------------------------------| 
|---------------------------------------------------------| 
| 
|  S  S    S    S   S  S  S  S  S  S  S  S  S    S  S  S 
|---------12-------------------------12-------------------| 
|---------13-------15----------------13----15-------------| 
|------------------16----------------------16-------------| 
|----14--------14-----14----14----14----14------14----14--| 
|---------------------------------------------------------| 
|-13---------------------13----13------------------13-----| 
 
 
   S   S  S  S  S  S  S    S  S  S  S  S  S     S  S  S 
|-----------------------------------------------------------| 
|---------1-----0-------------------1-----0-----------------| 
|------------2-----2-------2-----------2--------2-----2-----| 
|------2--------------2----------2-----------------2--------| 
|--0--------------------------0-----------------------------| 
|-----------------------------------------------------------| 
| 
|  ~~~ 
|                                                     |-3-| 
|  Q.                 S a  S  S  S  S  S  E.          T T T 
|-----------------------------7-----5-----------------------| 
|-----------------------3s=5-----5-----5--8b10r=======8p5---| 
|--9------------------------------------------------------5-| 
|-----------------------------------------------------------| 
|-----------------------------------------------------------| 
|-----------------------------------------------------------| 
| 
|  S   S  S  S  S  S  S    S  S  S  S  S  S     S  S  S 
|--------12------------------------12-----------------------| 
|--------13----15------------------13----15-----------------| 
|--------------16------------------------16-----------------| 
|-----14----14----14------14----14----14-------14----14-----| 
|-12-----------------12------12-------------------12--------| 
|-----------------------------------------------------------| 
 
 
   S  S  S    S   S  S  S     S     S     S     S    S     S    S     S     S 
|--------------------------------------------------------------------------------| 
|--------1--------0-----------------------------1----------0---------------------| 
|-------------2------2--------2----------------------2----------2-----------2----| 
|-----2-----------------2-----------------2---------------------------2----------| 
|--------------------------------------------------------------------------------| 
|--1--------------------------------1--------------------------------------------| 
| 
|  ~~         ~~~       PM------------------| 
|                       |---3----|  |---3----|  |---3---| 
|   E      S    E.        S  S     S  S  S     S  S S     S  T T  T  T  T  T  T T 
|---------------------------------------------------------------------8-12----8--| 
|------------------------------------------------------12---------10-------12----| 
|--4-----4b5r=2-----------------------------12---------------9-12----------------| 
|-------------------------10----14--9-10----------9-------10---------------------| 
|----------------------12----------------------10--------------------------------| 
|--------------------------------------------------------------------------------| 
| 
|  S  S  S    S   S  S  S     S     S     S     S    S     S    S     S     S 
|-------12-------------------------------------12--------------------------------| 
|-------13-------15----------------------------13---------15---------------------| 
|----------------16---------------------------------------16---------------------| 
|----14------14-----14-------14----------14---------14---------14----------14----| 
|--------------------------------------------------------------------------------| 
|-13-------------------13----------13--------------------------------13----------| 
 
 
   S     S  S  S     S  S  S     S     S    S      S   S  S  S  S         S 
|-----------1--------0-----------------3-----------1------0--1--0-----------| 
|--------------3--------3--------3----------3----------3------------------3-| 
|--------2-----------------2------------------------------------------------| 
|--0------------------------------------------------------------------------| 
|---------------------------------------------------------------------------| 
|---------------------------------------------------------------------------| 
| 
|        ~~~~~~~~~~~                               ~~~ 
|  S  a   E      E.          S.       T  T T  S      Q            T  a  S. 
|-15-15s17----15b17---------------------------------------------------------| 
|-------------------------15b17r===13-15---15pb17r================13s15-----| 
|-------------------------------------------------14-----------------------| 
|---------------------------------------------------------------------------| 
|---------------------------------------------------------------------------| 
|---------------------------------------------------------------------------| 
| 
|  S     S  S  S     S  S  S     S     S    S      S   S  S  S  S         S 
|----------17-------15----------------20----------17--------17--------------| 
|----------18-------17----------------20----------17-----20----20--------18-| 
|-------17----17-------17-------17------------------------------------------| 
|-15----------------------15---------------15---------15--------------------| 
|---------------------------------------------------------------------------| 
|---------------------------------------------------------------------------| 
 
 
   S     S  S  S  S  S      S  S     S     S      S   S   S        S   S        S 
|------------------------------------------------------------------------------------| 
|-----------1-----0------------------3------------1-------0--------1---0-------------| 
|--------------2-----2---------2-----------2----------2-------------------------2----| 
|--------2------------------2--------------------------------------------------------| 
|--0---------------------------------------------------------------------------------| 
|------------------------------------------------------------------------------------| 
| 
|  ~~~~~             ~~~~~~                   ~~~~~~~~~~~~~~~~ 
|                                    |---3----| 
|  Q              S   E          T  T  S  S     S  +E      +T    T   S.     S        T 
|------------------------------------------------------------------------------------| 
|-13b15-------------13b15=====13r===13-----------------------------------12b13r===10-| 
|--------------------------------16----16----14-(14)----(14)h(16)--------------------| 
|------------------------------------------------------------------------------------| 
|------------------------------------------------------------------------------------| 
|------------------------------------------------------------------------------------| 
| 
|  S     S  S  S  S  S      S  S     S     S      S   S   S        S   S        S 
|----------12-----------------------15-----------12---------------12-----------------| 
|----------13----15-----------------17-----------13------15-----------15-------13----| 
|----------------16------------------------------------------------------------------| 
|-------14----14----14--------14-----------------------------------------------------| 
|-12-----------------------12-------------12---------12------------------------------| 
|------------------------------------------------------------------------------------| 
 
 
   S   S S    S    S     S    S     S        S  S  S  S   S  S  S S 
|-------------------------------------------------------------------| 
|------------------3-------------------------3------------0---------| 
|--------0---------------0----------0-----------0-----0------0----0-| 
|------0------0---------------0--------------------0------------0---| 
|-------------------------------------------------------------------| 
|--3----------------------------------------------------------------| 
| 
|                                                         ~~~ 
|        |---3---| 
|  S   S S  S    S T  T  T T  T  T  T  T  a  S  S  S  S   Q 
|-------------------------------------------------------------------| 
|-12----------------------------------------------------------------| 
|-----12-9-12------9----12------------------------------------------| 
|---------------12---10----9-10-----9-------------------------------| 
|-------------------------------12----10-10s12-10-------------------| 
|-------------------------------------------------10s12--10--------| 
| 
|  Q.                         S     S         E      S  E.         E  
|----------------------------------------------------10-------------| 
|----------------------------------10-------12-------12-------------| 
|----------------------------12-------------------12-12--------12---| 
|-------------------------------------------------------------------| 
|-------------------------------------------------------------------| 
|-------------------------------------------------------------------| 
 
 
      ~~~~~~~~~~~~~~~~~~~~~~~~ 
      E.  E.   E.  E.       Q 
|--------------------------------| 
|----/3---3----3---3--------3----| 
|--------------------------------| 
|--------------------------------| 
|--------------------------------| 
|--------------------------------| 
| 
|     ~~~~~~~~~~~~~~~~      ~~ 
|  a  E.  E.   E.   E    +S   Q 
|-----------------12--(12)S17----| 
|------------/10-----------------| 
|---------9----------------------| 
|--5s=7--------------------------| 
|--------------------------------| 
|--------------------------------| 
| 
|  Q.     Q        Q. 
|--6-----------------------------| 
|-10-----13-------11-------------| 
|-10-----15-------10-------------| 
|--------------------------------| 
|--------------------------------| 
|--------------------------------| 
 
 
   W 
|-(0)-------------------------------------| 
|--1--------------------------------------| 
|--2--------------------------------------| 
|--2--------------------------------------| 
|-(0)-------------------------------------| 
|-----------------------------------------| 
| 
|        ~~                ~~~~~~~ 
|              |--3--| 
|  T  T  Q     T  T  T  S  S  +H 
|-20p17-19----20p19p17-19-19-(19)---------| 
|-----------------------------------------| 
|-----------------------------------------| 
|-----------------------------------------| 
|-----------------------------------------| 
|-----------------------------------------| 
| 
| Gtr IV 
|  S  S  S   E   S  S   E   S  S    E    S S  S 
|-----------------------------------------| 
|-12-------13-------12--------13-------12-| 
|--9-----9--------9--------9---------9----| 
|-10-10-------10-------10---------10------| 
|-----------------------------------------| 
|-----------------------------------------| 
 
 
  Gtr I 
    E   S  H          +E   a  S  S  S 
|--3-----------------------------------------| 
|--0-----0----------(0)--1s=3----------------| 
|--0--0------------------------5--4----------| 
|--------------------------------------------| 
|--------------------------------------------| 
|--------------------------------------------| 
| 
|  W 
|--------------------------------------------| 
|--------------------------------------------| 
|--------------------------------------------| 
|--------------------------------------------| 
|--------------------------------------------| 
|--------------------------------------------| 
| 
|  S  S  S   E   S  S   E    S  S  S  S  S  S  S 
|-----------------------------10-------------| 
|-10-------12-------10--------12-------10----| 
|-------12-------12--------14-12-------------| 
|--9-12-------12--------12----12----12----12-| 
|-10-----------------------------10----------| 
|-10-----------------------------------------| 
   W 
 
 
     ~~~~~~~~~~ 
   T S.    +Q.                S  S  S  S +Q 
|--------------------------------------0-(0)-------| 
|-----------------------------------1--------------| 
|--4s5-----(5)-------------------2-----------------| 
|-----------------------------3--------------------| 
|--------------------------------------------------| 
|--------------------------------------------------| 
| 
| Gtr IV 
|  S     S  S   S  S  S S  S  S  S  S  S  S   S   E  
|----------------------------10--------8--------10-| 
|-13-----------12---------13-------10-10-----10----| 
|-----------9---9-------9----10-10----10-10--------| 
|--------------10----10----------------------------| 
|-------12-----12-12-------------------------------| 
|--------------------------------------------------| 
 
 
   E.        S  S  S  H                E  
|---------------0h=1--0---------------------| 
|-------------------------------------------| 
|------------2------------------------------| 
|-(0)---------------------------------------| 
|-------------------------------------3-----| 
|-------------------------------------------| 
| 
|  S   S  S  S  S  S  S  S  Q   S  S  S  S 
|-10--------12-------12-13------------------| 
|-10-----15-15----15-------15-----15-13-12--| 
|-------------------------------------------| 
|--7---------------------------12-----------| 
|-----12----12-12---------------------------| 
|-------------------------------------------| 
 
 
   Q        +S   S  S  E.  S  T S.  E. 
|--------------------------------------------| 
|----------------------0------0h1---1--------| 
|-------------------2------------------------| 
|----------------2---------2-----------------| 
|--0--------(0)------------------------------| 
|--------------------------------------------| 
| 
|  S S S   E       S  S  E.  S   E      S   S  S 
|--------------------------------------------| 
|-10---8-10--------12-10--10--8----10--------| 
|--9-9----9------------9------9-----9--------| 
|-10-----10-----10----10-----10----10--10-12-| 
|--------12-----------12-----10----12--------| 
|--------------------------------------------| 
 
 
   H                      +E.  E.         E  
|---------------------------------------------| 
|---------------------------------------------| 
|----------------------------------------0----| 
|------------------------------0--------------| 
|---------------------------------------------| 
|--3----------------------(3)-----------------| 
| 
|  S  S  S  S  S  S  S  S  E.  S   S  S  S  S 
|------------------------------------------10-| 
|----------12----12-10---------------12-13----| 
|-------12-12----------12--9------------------| 
|----12----12---------------------12----------| 
|-10----------10----------10--10--------------| 
|---------------------------------------------| 
 
 
     ~~~~~~~~~~~~~~~~~~~~~~~~~~~~~~~~~~~~~~~~~~~ 
   T T +H.                                  +E. 
|-----------------------------------------------------| 
|-----------------------------------------------------| 
|--4s5-(5)----------------------------------(5)-------| 
|-----------------------------------------------------| 
|-----------------------------------------------------| 
|-----------------------------------------------------| 
| 
|  S    S   S  S  S  S  S  S  S  S  S  S  S  S   S  S 
|-12----------13----------12----------13-----------12-| 
|----------13----------13-----------------------------| 
|-------------------14----------14----------14--------| 
|----------------------------------14-----------14----| 
|------12--------12-----------------------------------| 
|----------------------------13----------13-----------| 
 
 
    E      S  S  E     S  S  S  S  S  S  S  S  S  S 
|--------0h=1p0----------0--0--0--0--0--0--0--0--| 
|------------------3--------3--3--3--3--3--3--3--| 
|---------------------2-----2--2--2--2--2--2--2--| 
|--0---------------------------------------------| 
|------------------------------------------------| 
|------------------------------------------------| 
| 
|  S  S  S   E     S S  S  S  S  S  S  S  S  S  S 
|-10-------10--------------12-12-12-12-----------| 
|-10-10----10--------10----10-10-10-10-----------| 
|-------10-10------9----10-10-10-10-10-12-12-14--| 
|-12------------12---------12-12-12-12-----------| 
|--------------------------------------10-10-12--| 
|------------------------------------------------| 
 
 
     S  S S S S S S S  S  S S S S S S S   S S S S S S S S S S S S S S S S 
||------------1-----------------3-------|----------------------------------| 
||o---------1---1-------------0---0-----|-------1-------1-------1-------1--| 
||--------2-------2---------0-------0---|-----0-------0-------2-------2----| 
||------3-----------3-----0-----------0-|---2-------0-------2-------2------| 
||o-------------------------------------|-3-------2-------0----------------| 
||---1-----------------3----------------|-------------------------3--------| 
| 
|   Gtr III 
|    H                 H                  H               H 
||--------------------------------------|----------------------------------| 
||o-------------------------------------|----------------------------------| 
||--(2)---------------(4)---------------|-5---------------2----------------| 
||---3-----------------5----------------|-5---------------2----------------| 
||o--3-----------------5----------------|-3---------------0----------------| 
||---1-----------------3----------------|----------------------------------| 
 
 
   S  S S S S S S S  S  S S S S S S S 
|-----------1-----------------3-------| 
|---------1---1-------------0---0-----| 
|-------2-------2---------0-------0---| 
|-----3-----------3-----0-----------0-| 
|-------------------------------------| 
|--1-----------------3----------------| 
| 
|  H                 H 
|-------------------------------------| 
|-------------------------------------| 
|-(2)---------------(4)---------------| 
|--3-----------------5----------------| 
|--3-----------------5----------------| 
|--1-----------------3----------------| 
 
 
 1.                                    2. 
  S S S S  S  S S E S S   E     S   E       S S S S S S S  E E   S  S E. 
|------------------------3-----------||---------0-----0-0--0--0-0--| 
|-------0h=1------3-----------1-----o||-------1---1---3-3--1--3p1--| 
|-----2-------2-----2------------2---||-----0-------0-0-0-(0)-0-0--| 
|---2-----------2-----2--------------||---2------------------------| 
|-0---------------------------------o||-3--------------------------| 
|------------------------------------||----------------------------| 
| 
| Q       +S  S S E S S  S   E    E       W 
|------------------------------------||----------------------------| 
|-----------------------------------o||----------------------------| 
|-2-------(2)-2---2-2---(2)-2--------||-5--------------------------| 
|-2-------(2)-2---2-2---(2)-2--------||-5--------------------------| 
|-0-------(0)-0---0-0----0--0---(2)-o||-3--------------------------| 
|--------------------------------0---||----------------------------| 
 
 
    Q   S S S S    E   E S S S S   S S S S S S S S S S S S S S S S 
|-^-1---1-------^-3--3-3-------|---0-------0-------0-------0-----| 
|-^-1-----1-----^-0--0---0-----|-----1-------1-------1-------1---| 
|-^-2-------2---^-0--0-----0---|-------0-------0-------0-------0-| 
|-^-3---------3-^-0--0-------0-|---------------------------------| 
|-^(3)----------^(2)-----------|-3-------2-------0---------------| 
|-^(1)----------^-3------------|-------------------------3-------| 
| 
| Gtr III 
|   H             H              H               H 
|------------------------------|---------------------------------| 
|------------------------------|---------------------------------| 
|--(2)-----------(4)-----------|-5---------------2---------------| 
|---3-------------5------------|-5---------------2---------------| 
|---3-------------5------------|-3---------------0---------------| 
|---1-------------3------------|---------------------------------| 
 
 
    E   E S S S S  S  S S E E.   S  S S S +Q     S S S  E    E. 
|-------1---------------3----|----------------------------------| 
|---------1---1-----------0--|--------0-(0)----0h1p0h1---3------| 
|-----------2---------0------|------2---------------------------| 
|-----3-------------0--------|----2-----------------------------| 
|----------------------------|-0--------------------------------| 
|--1-------------3-----------|----------------------------------| 
| 
|  H             H             Q.           Q.         S S  S S 
|----------------------------|----------------------------------| 
|----------------------------|----------------------------------| 
|-(2)-----------(4)----------|-2------------2----------2-2--2-2-| 
|--3-------------5-----------|-2------------2----------2-2--2-2-| 
|--3-------------5-----------|-0------------0----------0-0--0-0-| 
|--1-------------3-----------|----------------------------------| 
 
 
   Q   S S S S  S  S S E E.   S S S S S S S S S S S S S S S S 
|------1---------------3----|---------------------------------| 
|--------1---1-----------0--|-------1-------1---1-0-----1-0---| 
|----------2---------0------|-----0-------0-------------------| 
|------------------0--------|---2-------0-----------2-------2-| 
|---------------------------|-3-------2-------0---------------| 
|--1------------3-----------|-------------------------3-------| 
| 
|  H            H             H               H 
|---------------------------|---------------------------------| 
|---------------------------|---------------------------------| 
|-(2)----------(4)----------|-5---------------2---------------| 
|--3------------5-----------|-5---------------2---------------| 
|--3------------5-----------|-3---------------0---------------| 
|--1------------3-----------|---------------------------------| 
 
 
   Q   S S S S   E   Q.     S S S S S  S S S S S S S S S S S 
|------1-------(3)------|-----------------------------------| 
|--------1-----(0)-0----|-----1---0------------1---0--------| 
|----------2----0-------|-------2----2---2-------2---2---2--| 
|------------3--0-------|---2----------2-----2---------2----| 
|-----------------------|-0----------------0----------------| 
|--1------------3-------|-----------------------------------| 
| 
|                         Gtr II 
|  H            H          E   E    Q.            E    Q 
|-----------------------|-----------------------------------| 
|-----------------------|-----5---3------------5---3--------| 
|-(2)----------(4)------|-----------------------------------| 
|--3------------5-------|-----------------------------------| 
|--3------------5-------|-----------------------------------| 
|--1------------3-------|-----------------------------------| 
 
 
                           H.=H  Q=40 
 4/4 
  S S S S S  S S S S S S S S S S S    W 
|----------------------------------|--------*| 
|-----1---0------------1---0-------|--------*| 
|-------2----2---2-------2---2---2-|--------*| 
|---2----------2-----2---------2---|--------*| 
|-0----------------0---------------|--0-----*| 
|----------------------------------|--------*| 
| 
|  E   E    Q.            E    Q         +W 
|----------------------------------|--------*| 
|-----5---3------------5---3-------|-(3)----*| 
|----------------------------------|--------*| 
|----------------------------------|--------*| 
|----------------------------------|--------*| 
|----------------------------------|--------*| 
 
_______________________________________________________ 
Contribuição: Rodrigo Oki Murai([email protected]) 

		  

See also:

tabs Dire Straits - Brothers in Arms tabs The Shadows - Apache tabs Status Quo - Whatever you want tabs Yes - Roundabout tabs Dire Straits - Sultans of Swing tabs Queen - Bohemian Rhapsody
e-chords

Other versions:

tabs Pain of Salvation - Second Love
auto scroll beats size up size down change color hide chords drawings
tab show chords e-chords YouTube Clip e-chords hide all tabs e-chords go to top tab

share