Our Last Night

home > Our Last Night

Distance Is Destroying Me Tab

Our Last Night

Difficulty: nolevelnolevel

by aman%5Fclaudino

tuner correct add songbook print version text version save to e-mail
chordsukulelecavacokeyboardtabbassdrumsharmonicsflute Guitar Pro
chords

Distance Is Destroying Me

	  
Tuning: Db Ab Db Gb Bb Eb 


Riff 1, Guitar 1 & 2 - 00:00 - 00:02 
- -------------------------------------------- 
- -8p0--7h8p0---8p0--12p10p0-7h8---8p0--7h8--- 
- -------------------------------------------- 
- -------------------------------------------- 
- -------------------------------------------- 
- -------------------------------------------- 
- 
- -12p0-10h12p0-12p0-15p14p0-10h12-12p0-10h12- 
- -------------------------------------------- 
- -------------------------------------------- 
- -------------------------------------------- 
- -------------------------------------------- 
- -------------------------------------------- 

Riff 2, Guitar 1 & 2 - 00:02 - 00:18 
- -12p0--10h12p0--12p0--15p14p0--10h12-12p0--10h12-12p0--10h12p0--12p0--15p 
- ------------------------------------------------------------------------- 
- ------------------------------------------------------------------------- 
- ------------------------------------------------------------------------- 
- ------------------------------------------------------------------------- 
- ------------------------------------------------------------------------- 
- 
- ------------------------------------------------------------------------- 
- ------------------------------------------------------------------------- 
- ------------------------------------------------------------------------- 
- ----2--2--2--2--2--2--2--2--2--2--2--2--2--2--2-----2--2--2--2--2--2--2-- 
- ----2--2--2--2--2--2--2--2--2--2--2--2--2--2--2-----2--2--2--2--2--2--2-- 
- ----2--2--2--2--2--2--2--2--2--2--2--2--2--2--2-----2--2--2--2--2--2--2-- 


- -14p0--10h12-12/17-17-17---\14-14-14-14-14-14-14-14\10-10-10-10-10-10-10- 
- -------------x--x--x--x-----x--x--x--x--x--x--x--x--x--x--x--x--x--x--x-- 
- -------------9-/14-14-14---\11-11-11-11-11-11-11-11\7--7--7--7--7--7--7-- 
- ------------------------------------------------------------------------- 
- ------------------------------------------------------------------------- 
- ------------------------------------------------------------------------- 
- 
- ------------------------------------------------------------------------- 
- ------------------------------------------------------------------------- 
- ----------------------------5--5--5--5--5--5--5--5--5--5--5--0--0--0--0-- 
- -2-/5--5--5--5--0--0--0-----5--5--5--5--5--5--5--5--5--5--5--1--1--1--1-- 
- -2-/5--5--5--5--0--0--0-----3--3--3--3--3--3--3--3--3--3--3-------------- 
- -2-/5--5--5--5--0--0--0-------------------------------------------------- 


- -12p0--10h12p0--12p0--15p14p0--10h12-12p0--10h12-12--12---12-12---------- 
- -------------------------------------------------x---x----x--x--12-12-12- 
- -------------------------------------------------9---9----9--9--x--x--x-- 
- ----------------------------------------------------------------9--9--9-- 
- ------------------------------------------------------------------------- 
- ------------------------------------------------------------------------- 
- 
- ------------------------------------------------------------------------- 
- ------------------------------------------------------------------------- 
- ------------------------------------------------------------------------- 
- ----2--2--2--2--2--2--2--2--2--2--2--2--2--2--2-----2--2--2--2--2--2--2-- 
- ----2--2--2--2--2--2--2--2--2--2--2--2--2--2--2-----2--2--2--2--2--2--2-- 
- ----2--2--2--2--2--2--2--2--2--2--2--2--2--2--2-----2--2--2--2--2--2--2-- 


- -------------------------------------------------------------11-11-11-11- 
- ----10-10-10----------------10/12-------------10/12----------x--x--x--x-- 
- ----x--x--x--11-11-11-11----x--x-----11/12----x--x-----11/12-8--8--8--8-- 
- ----7--7--7--x--x--x--x-----7-/9-----x--x-----7-/9-----x--x-------------- 
- -------------8--8--8--8--------------9-/10-------------9-/10------------- 
- ------------------------------------------------------------------------- 
- 
- ------------------------------------------------------------------------- 
- ------------------------------------------------------------------------- 
- ----------------------------5--5--5--5--5--5--5--5--5--5--5--0--0--0--0-- 
- -2-/5--5--5--5--0--0--0-----5--5--5--5--5--5--5--5--5--5--5--1--1--1--1-- 
- -2-/5--5--5--5--0--0--0-----3--3--3--3--3--3--3--3--3--3--3-------------- 
- -2-/5--5--5--5--0--0--0-------------------------------------------------- 


Riff 3, Guitar 1 & 2 - 00:18 - 00:34 
- ----------------------------------------------------------------- 
- ----------------------------------------------------------------- 
- ----------------------------------------------------------------- 
- -------------------------------------------------1---1---1---1--- 
- ----------------3------------------------------1---1---1---1--- 
- ----------------3------------------------------1---1---1---1--- 
- 
- ----------------------------------------------------------------- 
- ----------------------------------------------------------------- 
- -0-----------------------0-----------------------0---0---0---0--- 
- -2-----------1-------0---2-----------1-------0---1---1---1---1--- 
- -----0-0-0-0-1-------0-------0-0-0-0-1-------0------------------- 
- -----0-0-0-0-1-------0-------0-0-0-0-1-------0------------------- 
PM     .......                 ....... 


- --------------------------------------------------------------------------------- 
- --------------------------------------------------------------------------------- 
- -----------------------------------------------------------------0---0---0---0--- 
- ----------------3------------------------------1---1---1---1---1---1---1---1--- 
- ----------------3------------------------------1---1---1---1------------------- 
- -------------------------------------------------1---1---1---1------------------- 
PM                                                                     ........... 
- --------------------------------------------------------------------------------- 
- --------------------------------------------------------------------------------- 
- -0-----------------------0-----------------------0---0---0---0---0---0---0---0--- 
- -2-----------1-------0---2-----------1-------0---1---1---1---1---1---1---1---1--- 
- -----0-0-0-0-1-------0-------0-0-0-0-1-------0----------------------------------- 
- -----0-0-0-0-1-------0-------0-0-0-0-1-------0----------------------------------- 
PM     .......                 .......                                 ........... 


- ----------------------------------------------------------------- 
- ----------------------------------------------------------------- 
- -0-----------------------0-----------------------0---0---0---0--- 
- -2-----------1-------0---2-----------1-------0---1---1---1---1--- 
- -----0-0-0-0-1-------0-------0-0-0-0-1-------0------------------- 
- -----0-0-0-0-1-------0-------0-0-0-0-1-------0------------------- 
PM     .......                 ....... 
- ----------------------------------------------------------------- 
- ----------------------------------------------------------------- 
- -0-----------------------0-----------------------0---0---0---0--- 
- -2-----------1-------0---2-----------1-------0---1---1---1---1--- 
- -----0-0-0-0-1-------0-------0-0-0-0-1-------0------------------- 
- -----0-0-0-0-1-------0-------0-0-0-0-1-------0------------------- 
PM     .......                 ....... 


- ----------------------------------------------------------------- 
- ----------------------------------------------------------------- 
- -0-----------------------0--------------------------------------- 
- -2-----------1-------0---2-----------1-------0------------------- 
- -----0-0-0-0-1-------0-------0-0-0-0-1-------0------------------- 
- -----0-0-0-0-1-------0-------0-0-0-0-1-------0------------------- 
PM     .......                 ....... 
- ----------------------------------------------------------------- 
- ----------------------------------------------------------------- 
- -0-----------------------0-----------------------0---0---0---0--- 
- -2-----------1-------0---2-----------1-------0---1---1---1---1--- 
- -----0-0-0-0-1-------0-------0-0-0-0-1-------0------------------- 
- -----0-0-0-0-1-------0-------0-0-0-0-1-------0------------------- 
PM     .......                 ....... 


- ----------------------------------------------------------------- 
- ----------------------------------------------------------------- 
- -0-----------------------0-----------------------0---0---0---0--- 
- -2-----------1-------0---2-----------1-------0---1---1---1---1--- 
- -----0-0-0-0-1-------0-------0-0-0-0-1-------0------------------- 
- -----0-0-0-0-1-------0-------0-0-0-0-1-------0------------------- 
PM     .......                 ....... 
- ----------------------------------------------------------------- 
- ----------------------------------------------------------------- 
- -0-----------------------0-----------------------0---0---0---0--- 
- -2-----------1-------0---2-----------1-------0---1---1---1---1--- 
- -----0-0-0-0-1-------0-------0-0-0-0-1-------0------------------- 
- -----0-0-0-0-1-------0-------0-0-0-0-1-------0------------------- 
PM     .......                 ....... 


- --------------------------------------------------------------------------------- 
- --------------------------------------------------------------------------------- 
- -0-----------------------0-----------------------0---0---0---0---0---0-0-0---0--- 
- -2-----------1-------0---2-----------1-------0---1---1---1---1---1---1-1-1---1--- 
- -----0-0-0-0-1-------0-------0-0-0-0-1-------0----------------------------------- 
- -----0-0-0-0-1-------0-------0-0-0-0-1-------0----------------------------------- 
PM     .......                 .......                                 ......... 
- --------------------------------------------------------------------------------- 
- --------------------------------------------------------------------------------- 
- -0-----------------------0-----------------------0---0---0---0---0---0-0-0---0--- 
- -2-----------1-------0---2-----------1-------0---1---1---1---1---1---1-1-1---1--- 
- -----0-0-0-0-1-------0-------0-0-0-0-1-------0----------------------------------- 
- -----0-0-0-0-1-------0-------0-0-0-0-1-------0----------------------------------- 
PM     .......                 .......                                 ......... 


Riff 4, Guitar 1 & 2 - 00:34 - 00:48 
- --------------------------------------------- 
- --------------------------------------------- 
- --------------------------------------------- 
- --------------------------------------------- 
- --------------------------------------------- 
- --------------------------------------------- 
- 
- --------------------------------------------- 
- --------------------------------------------- 
- --------------------------------------------- 
- -2---------2---------2---------2------------- 
- -------------------1-------------------1-0--- 
- ---0-1-2-0---0-1-2-----0-1-2-0---0-1-2-----1- 


- --------------------------------------------- 
- --------------------------------------------- 
- --------------------------------------------- 
- -2---------2---------2---------2------------- 
- -------------------1-------------------1-0--- 
- ---0-1-2-0---0-1-2-----0-1-2-0---0-1-2-----1- 
- 
- --------------------------------------------- 
- --------------------------------------------- 
- --------------------------------------------- 
- -2---------2---------2---------2------------- 
- -------------------1-------------------1-0--- 
- ---0-1-2-0---0-1-2-----0-1-2-0---0-1-2-----1- 


- --------------------------------------------- 
- --------------------------------------------- 
- --------------------------------------------- 
- -----------------------------------------2--- 
- -2-2-2-----------2-2-----2-------2-2-2-222--- 
- -2-2-2-2-------2-2-2-----2-------2-2-2-222--- 
PM .....           ...     .       ........ 
- --------------------------------------------- 
- --------------------------------------------- 
- --------------------------------------------- 
- -2---------2---------2---------2------------- 
- -------------------1-------------------1-0--- 
- ---0-1-2-0---0-1-2-----0-1-2-0---0-1-2-----1- 


- --------------------------------------------- 
- --------------------------------------------- 
- --------------------------------------------- 
- -----------------------------------------2--- 
- -2-2-2-----------2-2-----2-------2-2-2-222--- 
- -2-2-2-2-------2-2-2-----2-------2-2-2-222--- 
PM .....           ...     .       ........ 
- --------------------------------------------- 
- --------------------------------------------- 
- --------------------------------------------- 
- -2---------2---------2---------2------------- 
- -------------------1-------------------1-0--- 
- ---0-1-2-0---0-1-2-----0-1-2-0---0-1-2-----1- 


Riff 5, Guitar 1 & 2 - 00:48 - 00:51 
- ------------------------------------------------- 
- ------------------------------------------------- 
- -------------------------------------4--4--4--4-- 
- -2--------0--------2--------5--------x--x--x--x-- 
- -2--------0--------2--------5--------2--2--2--2-- 
- -2--------0--------2--------5-------------------- 
- 
- ------------------------------------------------- 
- -5--------7--------8--------10-------12-12-12-12- 
- -x--------x--------x--------x--------x--x--x--x-- 
- -2--------4--------5--------7--------9--9--9--9-- 
- ------------------------------------------------- 
- ------------------------------------------------- 


Riff 6, Guitar 1 & 2 - 00:51 - 01:06 
- -12p0--10h12p0--12p0--15p14p0--10h12-12p0--10h12-12p0--10h12p0--12p0--15p 
- ------------------------------------------------------------------------- 
- ------------------------------------------------------------------------- 
- ------------------------------------------------------------------------- 
- ------------------------------------------------------------------------- 
- ------------------------------------------------------------------------- 
- 
- ------------------------------------------------------------------------- 
- -8p-0--7-h8-p0--8-p0--12p10p0--7-h8--8-p0--7-h8-------------------------- 
- ------------------------------------------------------------------------- 
- -------------------------------------------------2--2--2--2--2--2--2--2-- 
- -------------------------------------------------2--2--2--2--2--2--2--2-- 
- -------------------------------------------------2--2--2--2--2--2--2--2-- 


- -14p0--10h12-12/17-17-17---\14-14-14-14-14-14-14-14\10-10-10-10-10-10-10- 
- -------------x--x--x--x-----x--x--x--x--x--x--x--x--x--x--x--x--x--x--x-- 
- -------------9-/14-14-14---\11-11-11-11-11-11-11-11\7--7--7--7--7--7--7-- 
- ------------------------------------------------------------------------- 
- ------------------------------------------------------------------------- 
- ------------------------------------------------------------------------- 
- 
- ------------------------------------------------------------------------- 
- ------------------------------------------------------------------------- 
- ----------------------------5--5--5--5--5--5--5--5--5--5--5--0--0--0--0-- 
- -2-/5--5--5--5--0--0--0-----5--5--5--5--5--5--5--5--5--5--5--1--1--1--1-- 
- -2-/5--5--5--5--0--0--0-----3--3--3--3--3--3--3--3--3--3--3-------------- 
- -2-/5--5--5--5--0--0--0-------------------------------------------------- 


- -12p0--10h12p0--12p0--15p14p0--10h12-12p0--10h12-12--12---12-12---------- 
- -------------------------------------------------x---x----x--x--12-12-12- 
- -------------------------------------------------9---9----9--9--x--x--x-- 
- ----------------------------------------------------------------9--9--9-- 
- ------------------------------------------------------------------------- 
- ------------------------------------------------------------------------- 
- 
- ------------------------------------------------------------------------- 
- ------------------------------------------------------------------------- 
- ------------------------------------------------------------------------- 
- ----2--2--2--2--2--2--2--2--2--2--2--2--2--2--2-----2--2--2--2--2--2--2-- 
- ----2--2--2--2--2--2--2--2--2--2--2--2--2--2--2-----2--2--2--2--2--2--2-- 
- ----2--2--2--2--2--2--2--2--2--2--2--2--2--2--2-----2--2--2--2--2--2--2-- 


- -------------------------------------------------------------11-11-11-11- 
- ----10-10-10----------------10/12-------------10/12----------x--x--x--x-- 
- ----x--x--x--11-11-11-11----x--x-----11/12----x--x-----11/12-8--8--8--8-- 
- ----7--7--7--x--x--x--x-----7-/9-----x--x-----7-/9-----x--x-------------- 
- -------------8--8--8--8--------------9-/10-------------9-/10------------- 
- ------------------------------------------------------------------------- 
- 
- ------------------------------------------------------------------------- 
- ------------------------------------------------------------------------- 
- ----------------------------5--5--5--5--5--5--5--5--5--5--5--0--0--0--0-- 
- -2-/5--5--5--5--0--0--0-----5--5--5--5--5--5--5--5--5--5--5--1--1--1--1-- 
- -2-/5--5--5--5--0--0--0-----3--3--3--3--3--3--3--3--3--3--3-------------- 
- -2-/5--5--5--5--0--0--0-------------------------------------------------- 


Riff 7 - 01:06 - 01:09 
- --------------------------------- 
- --------------------------------- 
- --------------------------------- 
- ---2-2---2-----2-2---2----------- 
- ---2-2---2-----2-2---2----------- 
- ---2-2---2-----2-2---2----------- 


Riff 8, Guitar 1 & 2 - 01:09 - 01:26 
- ----------------------------------------------------------------- 
- ----------------------------------------------------------------- 
- -0-----------------------0-----------------------0---0---0---0--- 
- -2-----------1-------0---2-----------1-------0---1---1---1---1--- 
- -----0-0-0-0-1-------0-------0-0-0-0-1-------0------------------- 
- -----0-0-0-0-1-------0-------0-0-0-0-1-------0------------------- 
PM     .......                 ....... 
- ----------------------------------------------------------------- 
- ----------------------------------------------------------------- 
- -0-----------------------0-----------------------0---0---0---0--- 
- -2-----------1-------0---2-----------1-------0---1---1---1---1--- 
- -----0-0-0-0-1-------0-------0-0-0-0-1-------0------------------- 
- -----0-0-0-0-1-------0-------0-0-0-0-1-------0------------------- 
PM     .......                 ....... 


- --------------------------------------------------------------------------------- 
- --------------------------------------------------------------------------------- 
- -0-----------------------0-----------------------0---0---0---0---0---0---0---0--- 
- -2-----------1-------0---2-----------1-------0---1---1---1---1---1---1---1---1--- 
- -----0-0-0-0-1-------0-------0-0-0-0-1-------0----------------------------------- 
- -----0-0-0-0-1-------0-------0-0-0-0-1-------0----------------------------------- 
PM     .......                 .......                                 ......... 
- --------------------------------------------------------------------------------- 
- --------------------------------------------------------------------------------- 
- -0-----------------------0-----------------------0---0---0---0---0---0---0---0--- 
- -2-----------1-------0---2-----------1-------0---1---1---1---1---1---1---1---1--- 
- -----0-0-0-0-1-------0-------0-0-0-0-1-------0----------------------------------- 
- -----0-0-0-0-1-------0-------0-0-0-0-1-------0----------------------------------- 
PM     .......                 .......                                 ......... 


- ----------------------------------------------------------------- 
- ----------------------------------------------------------------- 
- -0--------------------------------------------------------------- 
- -2-----------1-------0------------------------------------------- 
- -----0-0-0-0-1-------0------------------------------------------- 
- -----0-0-0-0-1-------0------------------------------------------- 
PM     ....... 
- ----------------------------------------------------------------- 
- ----------------------------------------------------------------- 
- -0-----------------------0-----------------------0---0---0---0--- 
- -2-----------1-------0---2-----------1-------0---1---1---1---1--- 
- -----0-0-0-0-1-------0-------0-0-0-0-1-------0------------------- 
- -----0-0-0-0-1-------0-------0-0-0-0-1-------0------------------- 
PM     .......                 ....... 


- ----------------------------------------------------------------- 
- ----------------------------------------------------------------- 
- -0-----------------------------------------------0---0---0---0--- 
- -2-----------1-------0---------------------------1---1---1---1--- 
- -----0-0-0-0-1-------0------------------------------------------- 
- -----0-0-0-0-1-------0------------------------------------------- 
PM     ....... 
- ----------------------------------------------------------------- 
- ----------------------------------------------------------------- 
- -0-----------------------0-----------------------0---0---0---0--- 
- -2-----------1-------0---2-----------1-------0---1---1---1---1--- 
- -----0-0-0-0-1-------0-------0-0-0-0-1-------0------------------- 
- -----0-0-0-0-1-------0-------0-0-0-0-1-------0------------------- 
PM     .......                 ....... 


- ----------------------------------------------------------------- 
- ----------------------------------------------------------------- 
- -0--------------------------------------------------------------- 
- -2-----------1-------0------------------------------------------- 
- -----0-0-0-0-1-------0------------------------------------------- 
- -----0-0-0-0-1-------0------------------------------------------- 
PM     ....... 
- ----------------------------------------------------------------- 
- ----------------------------------------------------------------- 
- -0-----------------------0-----------------------0---0---0---0--- 
- -2-----------1-------0---2-----------1-------0---1---1---1---1--- 
- -----0-0-0-0-1-------0-------0-0-0-0-1-------0------------------- 
- -----0-0-0-0-1-------0-------0-0-0-0-1-------0------------------- 
PM     .......                 ....... 


- --------------------------------------------------------------------------------- 
- --------------------------------------------------------------------------------- 
- -0-----------------------0-----------------------0---0---0---0---0---0---0---0--- 
- -2-----------1-------0---2-----------1-------0---1---1---1---1---1---1---1---1--- 
- -----0-0-0-0-1-------0-------0-0-0-0-1-------0----------------------------------- 
- -----0-0-0-0-1-------0-------0-0-0-0-1-------0----------------------------------- 
PM     .......                 .......                                 ......... 
- --------------------------------------------------------------------------------- 
- --------------------------------------------------------------------------------- 
- -0-----------------------0-----------------------0---0---0---0---0---0---0---0--- 
- -2-----------1-------0---2-----------1-------0---1---1---1---1---1---1---1---1--- 
- -----0-0-0-0-1-------0-------0-0-0-0-1-------0----------------------------------- 
- -----0-0-0-0-1-------0-------0-0-0-0-1-------0----------------------------------- 
PM     .......                 .......                                 ......... 


Riff 2, Guitar 1 & 2 - 01:26 - 01:41 


Riff 9, Guitar 1 & 2 - 01:41 - 01:51 
- ------------------------------------------------------------------------------------------------- 
- -------------------------------------------------------------------------------------0----------- 
- -------------------------------------------------5--------4-------/9-----------------0----------- 
- -2--------2--------2-----------------------------5--------5-------/9----------------------------- 
- -2--------2--------2-----------------------------3--------2-------/7----------------------------- 
- -2--------2--------2----------------------------------------------------------------------------- 
- 
- ------------------------------------------------10h12p0-7p0--------0-----------------0--0--0--0-- 
- -------------------------------------------------------------10/12-12----------------10-10-10-10- 
- -9--------11-------12---------------------------------------------------------------------------- 
- -x--------x--------x----------------------------------------------------------------------------- 
- -7--------9--------10---------------------------------------------------------------------------- 
- ------------------------------------------------------------------------------------------------- 


- ------------------------------------------------------------------------------------------------- 
- -------------------------------------------------------------------------------------0----------- 
- -------------------------------------------------5--------4-------/9-----------------0----------- 
- -2--------2--------2-----------------------------5--------5-------/9----------------------------- 
- -2--------2--------2-----------------------------3--------2-------/7----------------------------- 
- -2--------2--------2----------------------------------------------------------------------------- 
- 
- ------------------------------------------------10h12p0-7p0--------0-----------------0--0--0--0-- 
- -------------------------------------------------------------10/12-12----------------7--7--7--7-- 
- -9--------11-------12---------------------------------------------------------------------------- 
- -x--------x--------x----------------------------------------------------------------------------- 
- -7--------9--------10---------------------------------------------------------------------------- 
- ------------------------------------------------------------------------------------------------- 


Riff 10, Guitar 1 & 2 - 01:51 - 01:58 
- ----------------------------------------------------------------------------------------- 
- -------------------------------------------------------------------------/3\-/3\-/3\-/3\- 
- -----------------------------------------------------------------8-8-8-8-888-888-777-777- 
- -2-0-2-2-----2-----2-----2-----------2---2-------2-----0-----2---x-x-x-x-xxx-xxx-xxx-xxx- 
- -2-0-2-2-----2-----2-----2---------0-2-0-2-------2-----0-----2---5-5-5-5-555-555-444-444- 
- -2-0-2-2-----2-----2-----2---------0-2-0-2-------2-----0-----2--------------------------- 
PM                                   .   .                                 /3\ /3\ /3\ /3\ 
- -0-0-0-0-0-0-0-0-0-0-0-0-0-0-0-0-0-0-0-0-0-0-0-0-----------------0-0-0-0-000-000-000-000- 
- -8-8-8-7-7-7-5-5-5-5-5-5-5-5-5-5-5-5-5-5-5-5-5-5-8-----7-----8---5-5-5-5-555-555-444-444- 
- -------------------------------------------------x-----x-----x--------------------------- 
- -------------------------------------------------5-----4-----5--------------------------- 
- ----------------------------------------------------------------------------------------- 
- ----------------------------------------------------------------------------------------- 


Riff 11, Guitar 1 & 2 - 01:58 - 02:19 
- ------------------------------------------------- 
- ------------------------------------------------- 
- ------------------------------------------------- 
- -------2-----------2-----------2----------------- 
- -2-2-2-2-----2-2-2-2-----2-2-2-2----------------- 
- -2-2-2-2-----2-2-2-2-----2-2-2-2----------------- 
PM .....       .....       ..... 
- -7-0-0-7-0-0-7-0-0-0-0-0-7-0-0-7-0-0-0-0-0-0-0-0- 
- ------------------------------------------------- 
- ------------------------------------------------- 
- ------------------------------------------------- 
- ------------------------------------------------- 
- ------------------------------------------------- 


- ------------------------------------------------- 
- ------------------------------------------------- 
- ------------------------------------------------- 
- -------------------------------2----------------- 
- -------3-3-3-3-----3-3-3-3-3-3-3----------------- 
- -------2-2-2-2-----2-2-2-2-2-2-2----------------- 
PM       .......     ........... 
- -0-0-0-8-0-0-8-0-0-0-0-0-8-0-0-8-0-0-3-0-0-3-0-0- 
- ------------------------------------------------- 
- ------------------------------------------------- 
- ------------------------------------------------- 
- ------------------------------------------------- 
- ------------------------------------------------- 


- ------------------------------------------------- 
- ------------------------------------------------- 
- ------------------------------------------------- 
- -------------------2-----------2----------------- 
- -------0-0-0-0-0-0-0-----0-0-0-0----------------- 
- -------2-2-2-2-2-2-2-----2-2-2-2----------------- 
PM       ...........       ..... 
- -0-0-0-7-0-0-7-0-0-0-0-0-7-0-0-7-0-0-0-0-0-0-0-0- 
- ------------------------------------------------- 
- ------------------------------------------------- 
- ------------------------------------------------- 
- ------------------------------------------------- 
- ------------------------------------------------- 


- ------------------------------------------------- 
- ------------------------------------------------- 
- ------------------------------------------------- 
- -------------2-----------------0----------------- 
- -------2-2-2-2-----0-0-0-0-0-0-0----------------- 
- -------2-2-2-2-----0-0-0-0-0-0-0----------------- 
PM       .....       ........... 
- -0-0-0-8-0-0-8-0-0-0-0-0-3-0-0-3-0-0-2-0-0-2-0-0- 
- ------------------------------------------------- 
- ------------------------------------------------- 
- ------------------------------------------------- 
- ------------------------------------------------- 
- ------------------------------------------------- 


- ------------------------------------------------- 
- ------------------------------------------------- 
- ------------------------------------------------- 
- -------2-----------2-----------2----------------- 
- -2-2-2-2-----2-2-2-2-----2-2-2-2----------------- 
- -2-2-2-2-----2-2-2-2-----2-2-2-2----------------- 
PM .....       .....       ..... 

- ------------------------------------------------- 
- ------------------------------------------------- 
- ------------------------------------------------- 
- -------------------------------2----------------- 
- -------3-3-3-3-----3-3-3-3-3-3-3----------------- 
- -------2-2-2-2-----2-2-2-2-2-2-2----------------- 
PM       .......     ........... 

- ------------------------------------------------- 
- ------------------------------------------------- 
- ------------------------------------------------- 
- -------------------2-----------2----------------- 
- -------0-0-0-0-0-0-0-----0-0-0-0----------------- 
- -------2-2-2-2-2-2-2-----2-2-2-2----------------- 
PM       ...........       ..... 

- ------------------------------------------------- 
- ------------------------------------------------- 
- ------------------------------------------------- 
- -------------2-----------------0----------------- 
- -------2-2-2-2-----0-0-0-0-0-0-0----------------- 
- -------2-2-2-2-----0-0-0-0-0-0-0-----------12\--- 
PM       .....       ........... 


Riff 5, Guitar 1 & 2 - 02:19 - 02:21 
Riff 6, Guitar 1 * 2 - 02:21 - 02:37 


Riff 12, Guitar 1 & 2 - 02:37 - 02:56 
- ------------------------------------------------------------------------------------------------- 
- -------------------------------------------------------------------------------------0----------- 
- -------------------------------------------------5--------4-------/9-----------------0----------- 
- -2--------2--------2-----------------------------5--------5-------/9----------------------------- 
- -2--------2--------2-----------------------------3--------2-------/7----------------------------- 
- -2--------2--------2----------------------------------------------------------------------------- 
- 
- ------------------------------------------------10h12p0-7p0--------0-----------------0--0--0--0-- 
- -------------------------------------------------------------10/12-12----------------10-10-10-10- 
- -9--------11-------12---------------------------------------------------------------------------- 
- -x--------x--------x----------------------------------------------------------------------------- 
- -7--------9--------10---------------------------------------------------------------------------- 
- ------------------------------------------------------------------------------------------------- 


- ------------------------------------------------------------------------------------------------------- 
- ------------------------------------------------------------------------------------------------------- 
- -------------------------------------------------5--------4-------/9----------------------------------- 
- -2--------2--------2-----------------------------5--------5-------/9-----------------0-----------2----- 
- -2--------2--------2-----------------------------3--------2-------/7-----------------0-----------2----- 
- -2--------2--------2-----------------------------------------------------------------0-----------2----- 
- 
- ------------------------------------------------10h12p0-7p0--5-/7--7-p0-----14\12p0--10----------12---- 
- ------------------------------------------------------------------------------------------------------- 
- -9--------11-------12---------------------------------------------------------------------------------- 
- -x--------x--------x----------------------------------------------------------------------------------- 
- -7--------9--------10---------------------------------------------------------------------------------- 
- ------------------------------------------------------------------------------------------------------- 
 
	  

there isn't a video lesson for this song

request
Search
auto scroll beats size up size down change color hide chords drawings
tab show chords e-chords YouTube Clip e-chords hide all tabs e-chords go to top tab