Os Thompsons

Eu só quis dizer

Os Thompsons

tabs

save to print version add songbook text version e-mail correct tuner
chordsukulelecavacokeyboardtabbassdrumsharmonicaflute Guitar Pro
close

there isn't a video lesson for this song

chords

Eu só quis dizer

	  		 
Intro/Chorus:  
 
E|----------------------------------------| 
B|----------------------------------------| 
G|--11-11---------------------------------| 
D|--11-11--11--13-13--7--9-9--11-11-11-11-| 
A|--9--9---11--13-13--7--9-9--11-11-11-11-| 
E|---------9---11-11--9--7-7--9--9--9--9--| 
 
Solo: 
 
E|-----------------|-------------------| 
B|-/7-7-7-5---7----|--------------5----| 
G|----------6---6--|-/6-6-4-2-4-6---6--| 
D|-----------------|-------------------| 
A|-----------------|-------------------| 
E|-----------------|-------------------| 
 
E|-----------------|-------------------| 
B|-/7-7-7-5---7----|-------------------| 
G|----------6---6--|-/6-6-4-2-4--------| 
D|-----------------|------------4~~~~--| 
A|-----------------|-------------------| 
E|-----------------|-------------------| 
 
SKA: F# D# B C# 
 
Pre-Chorus: 
 
           4X 
E|---------------------|--------------------------| 
B|---------------------|--------------------------| 
G|--8-8-------11-------|-11-----11-----11---------| 
D|--8-8--9-9--11--11-11|-11-11--11-11--11-11-X-X--| 
A|--6-6--9-9--9---11-11|-9--11--9--11--9--11-X-X--| 
E|-------7-7------9--9-|----9------9------9--X-X--| 
 
Outro: F# D# B C# 
 
 
_______________________________________________________ 
Contribuição: Sérgio Augusto A. De Souza([email protected]) 

		  

Full key step upFull key step up
Half key step upHalf key step up
Half key step downHalf key step down
Full key step downFull key step down
hide glossary

See also:

tabs Detonautas - Outro lugar tabs Legião Urbana - Tempo Perdido(solo inicial ver.) tabs Paralamas do Sucesso - Meu erro tabs Legião Urbana - Pais e Filhos(solo) tabs Legião Urbana - Há Tempos tabs Nando Reis - Luz do Olhos
e-chords

Other versions:

tabs Os Thompsons - Eu só quis dizer
auto scroll beats size up size down change color hide chords drawings
tab show chords e-chords YouTube Clip e-chords hide all tabs e-chords go to top tab

share