Os Kmaradas

Já disse pra você

Os Kmaradas

tabs

save to print version add songbook text version e-mail correct tuner
chordsukulelecavacokeyboardtabbassdrumsharmonicaflute Guitar Pro
close

there isn't a video lesson for this song

chords

Já disse pra você

	  		 
A tablatura não esta 100% mais da para tocar tranquilo basta vocês  
escutarem a musica. 
O utimo solo se não consiguirem tocar façam duas vezes a primeira parte  
do ultimo solo. 
Valeu.  
Agora é só sai tocando. 
 
A MUSICA É TOCADA NA SEGUINTE ORDEM.  
 
Intro: 
Riff 1: 2 Vezes 
Riff 2: Solo 1º 
Riff 3: 4 Vezes 
Riff 2: Solo 1º 
Riff 1: 4 vezes 
Riff 3: 4 vezes 
Riff 2: Solo 1º 
Riff 1: 4 vezes 
Riff 4: Solo 2º 
Riff 1: 4 vezes 
 
 
 
Intro: 
 
         F#                   F#         G    A      C 
E|------------------|---------------------------------------------- 
B|------------------|---------------------------------------------- 
G|---------------4b-|---------------------------------------------- 
D|----4-4-4-4-4-----|------4-4-4-4-4-----5----7------9------------- 
A|----4-4-4-4-4-----|------4-4-4-4-4-----5----7------9------------- 
E|----2-2-2-2-2-----|------2-2-2-2-2-----3----5------8------------- 
 
 
Riff 1 
 
        D            D           C        G    A      C 
 
E|-------------------------------------------------------- 
B|-------------------------------------------------------- 
G|--7-7-7-7-7----7-7-7-7-7----5-5-5-5-5-------------------  
D|--7-7-7-7-7----7-7-7-7-7----5-5-5-5-5---5----7------9---- 
A|--5-5-5-5-5----5-5-5-5-5----3-3-3-3-3---5----7------9---- 
E|----------------------------------------3----5------6---- 
 
 Riff 2  1º solo. 
E|------------------------------------------------------------------- 
B|------------------------------------------------------------------- 
G|------------------------------------------------------------------- 
D|-7-----------7---------7------------------------------------------- 
A|--5-6-8b------6-7-8b----6-7---------------------------------------- 
E|-----------------------------8///////////////ate-o-fim-do-braço da guitarra 
 
 
Riff 3 
 
 O muleque...............(ate essa pate) você pensa que eu já não tô sabendo que tu anda se  
metendo com uma  rapa de doidão. 
       D                D            C          C 
 
E|---------------------------------------------------------------- 
B|---------------------------------------------------------------- 
G|--7-7-7-7-7-------7-7-7-7-7----5-5-5-5-5------5-5-5-5-5--------- 
D|--7-7-7-7-7-------7-7-7-7-7----5-5-5-5-5------5-5-5-5-5---------  
A|--5-5-5-5-5-------5-5-5-5-5----3-3-3-3-3------3-3-3-3-3--------- 
E|---------------------------------------------------------------- 
 
 
 
Riff 4  2º solo. 
    
     2 vezes essa parte                  Bem rapido 
E|------------------------|------------------------------------------------------------------ 
B|------------------------|------------------------------------------------------------------ 
G|------------------------|------------------------------------------------------------------ 
D|-7------7---------7-5b--|---------------------15-14-12--14-15---------15--15-16-18-18b----- 
A|--5-6----5-6-8b-6-5-----|-------------17-15-13----------------13-15-17--------------------- 
E|------------------------|-17b-17-15-13----------------------------------------------------- 
 
 
 
_______________________________________________________ 
Contribuição: Luiz Ferreira Araújo([email protected]) 

		  

Full key step upFull key step up
Half key step upHalf key step up
Half key step downHalf key step down
Full key step downFull key step down
hide glossary

See also:

tabs Capital Inicial - Fogo tabs Paralamas do Sucesso - Meu erro tabs Legião Urbana - Tempo Perdido(solo inicial ver.) tabs Skank - Vou Deixa (Solo 2) tabs Legião Urbana - Índios (base) tabs Legião Urbana - O Teatro Dos Vampiros
e-chords

Other versions:

tabs Os Kmaradas - Já disse pra você
auto scroll beats size up size down change color hide chords drawings
tab show chords e-chords YouTube Clip e-chords hide all tabs e-chords go to top tab

share