save to print version add songbook text version e-mail correct tuner
chordsukulelecavacokeyboardtabbassdrumsharmonicaflute Guitar Pro
close

there isn't a video lesson for this song

chords

Recado

Key:  Dm More
Recado Key AmAm
Recado Key A#mA#m
Recado Key BmBm
Recado Key CmCm(one step down)
Recado Key C#mC#m(half step down)
Recado Key DmDm(original key)
Recado Key D#mD#m(half step up)
Recado Key EmEm(one step up)
Recado Key FmFm
Recado Key F#mF#m
Recado Key GmGm
Recado Key G#mG#m
	  		

Key: 
where # represents a fret number 

#h# - hammer 
#p# - pull 
/ \ - slides, up and down respectively. 
#b# - bend from normal note up to achieve bended note. 
 b  - signifies holding a bended note and picking, only occurs once 
      here in this song, see in the box after 1:42.  
 *  - beat progression. 
 @  - symbol substitution. 
 !  - symbol reduction (0=10, 2=12, 4b6=14b16...etc) 



Intro: 

strumming with chords (in EADGBe format): 
x5355x Dm9 
x6566x D#9 

   
  0:11 

e|---------6-----5-------------------------6-----5-----------------| 
B|---------8-----6-------------------------5-----5-----------------| 
G|-7---------------------7---7---6---------7-----6-----------------| 
D|---------------------------6---5-------------5-------------------| 
A|-----------------------------------------------------------------| 
E|-----------------------------------------------------------------| 
   *   *   *   *   *   *   *   *   *   *   *   *   *   *   *   *  

  0:16 

e|-----------------5-5---------------------5-----3-----------------| 
B|-------------7-------7-------------------3-----------------------| 
G|---5-----7---------------7-5---3---3-----3-----------------------| 
D|---4-------------------------------------3-----------------------| 
A|-----------------------------------------------------------------| 
E|-----------------------------------------------------------------| 
   *   *   *   *   *   *   *   *   *   *   *   *   *   *   *   * 

  0:21 
                                           @=6h8p6 
e|---3~~~~/5-6---8---------6-5-------------------------------------| 
B|[email protected]-| 
G|-----------------------------------------------7---------------7-| 
D|-----------------------------------------------------------------| 
A|-----------------------------------------------------------------| 
E|-----------------------------------------------------------------| 
   *   *   *   *   *   *   *   *   *   *   *   *   *   *   *   *  

  0:26 

e|-----------------------------------------------------------------| 
B|-5h6---5-------------------5---6-6-5-----------5-----------------| 
G|---------7-5---4---------7-------------7---6-------6-----------7-| 
D|-------------------------------------------------------8---7-----| 
A|-----------------------------------------------------------------| 
E|-----------------------------------------------------------------| 
   *   *   *   *   *   *   *   *   *   *   *   *   *   *   *   *  

  0:31 

e|---------6-----5-------------------------6-----5-----------------| 
B|---------8-----6-------------------------5-----5-----------------| 
G|-----------------------7---7~~~~\6---6---7-----6-----------------| 
D|---------------------------6~~~~\5---5-------5-------------------| 
A|-----------------------------------------------------------------| 
E|-----------------------------------------------------------------| 
   *   *   *   *   *   *   *   *   *   *   *   *   *   *   *   *  

  0:36 

e|-----------------5-5---------------------5~/~8---5-----3---------| 
B|-------------7-------7-------------------4~/~7---3---------------| 
G|---5-----7-7-------------7-5---3---------5~/~8---3---------------| 
D|---4-------------------------------------4~/~7---3---------------| 
A|-----------------------------------------------------------------| 
E|-----------------------------------------------------------------| 
   *   *   *   *   *   *   *   *   *   *   *   *   *   *   *   * 

  0:41 
                                           @=6h8p6 
e|---3-----5-6---6/8-------6-5-------------------------------------| 
B|[email protected]-| 
G|-----------------------------------------------7---------------7-| 
D|-----------------------------------------------------------------| 
A|-----------------------------------------------------------------| 
E|-----------------------------------------------------------------| 
   *   *   *   *   *   *   *   *   *   *   *   *   *   *   *   *  

  0:46 
                                   @=5h6 
e|---6-------------------------------------------------------------| 
B|[email protected]-| 
G|-8-----------8-6---------7---------------------------------------| 
D|-----------------------------------------------------------------| 
A|-----------------------------------------------------------------| 
E|-----------------------------------------------------------------| 
   *   *   *   *   *   *   *   *   *   *   *   *   *   *   *   *  

  0:51 
       @=3h4         @=7h8 
e|-----------------------------------------------------------------| 
B|[email protected]~/[email protected]~/~10------------8---------------5-| 
G|-----------------------------------------------------------------| 
D|-----------------------------------------------------------------| 
A|-----------------------------------------------------------------| 
E|-----------------------------------------------------------------| 
   *   *   *   *   *   *   *   *   *   *   *   *   *   *   *   *  

  0:56 
       @=5h6               @=4h5p4 
e|[email protected]/7-------------7-5---------------| 
B|[email protected]~/~10----------------------------5-------------------| 
G|-------------------------------------------6--------------6------| 
D|-----------------------------------------5-----------------------| 
A|-----------------------------------------------------------------| 
E|---------------------------------------5-------------------------| 
   *   *   *   *   *   *   *   *   *   *   *   *   *   *   *   * 

  1:01 

e|---------6-----5-------------------------6-----5-----------------| 
B|---------8-----6-------------------------5-----5-----------------| 
G|-7---------------------7---7~~\~~6-6-----7-----6-----------------| 
D|---------------------------6~~\~~5-5-5-------5-------------------| 
A|-----------------------------------------------------------------| 
E|-----------------------------------------------------------------| 
   *   *   *   *   *   *   *   *   *   *   *   *   *   *   *   *  

  1:07 

e|-----------------5-5---------------------5-----3-----------------| 
B|-------------7-------7-------------------4-----3-----------------| 
G|---5-----7---------------7-5---3---3-----5-----3-----------------| 
D|---4-------------------------------------------------------------| 
A|-----------------------------------------------------------------| 
E|-----------------------------------------------------------------| 
   *   *   *   *   *   *   *   *   *   *   *   *   *   *   *   * 

  1:12 
                                           
e|---3-----5---6---8-------6-5-------------------------------------| 
B|---------8---6---5-------------8---------6-5-------5-----6-------| 
G|-----------------------------------------------7---------------7-| 
D|-----------------------------------------------------------------| 
A|-----------------------------------------------------------------| 
E|-----------------------------------------------------------------| 
   *   *   *   *   *   *   *   *   *   *   *   *   *   *   *   *  

  1:17 
                                   
e|---6-----------------------------6h7---5-------------------------| 
B|---------8-----------------5---6---------6-----------------------| 
G|-8-----------8-6---------7-----------------7-4---4-----4---4-----| 
D|-----------------------------------------------------------------| 
A|-----------------------------------------------------------------| 
E|-----------------------------------------------------------------| 
   *   *   *   *   *   *   *   *   *   *   *   *   *   *   *   *  

  1:22 
                                                         @=5h6 
e|[email protected]-| 
B|-------5-6---------------------------------5-8-------------------| 
G|-------------6-7-------------------------6-----------------------| 
D|-------------------6-7---7-7-6---5-------------------------------| 
A|-----------------------------------------------------------------| 
E|-----------------------------------------------------------------| 
   *   *   *   *   *   *   *   *   *   *   *   *   *   *   *   *  


                 @=11p10 
e|[email protected]-| 
B|-----8-6h7-------------8-7-------------------8---10----8---------| 
G|---------------------------8-7-5-----------7-------7-------------| 
D|---------------------------------8-8p5-7/8-----------------------| 
A|-----------------------------------------------------------------| 
E|-----------------------------------------------------------------| 
   *   *   *   *   *   *   *   *   *   *   *   *   *   *   *   *  

  1:32 
                               ! ! !   ! !     !   ! !   ! 
e|-------------------------------------2---------------------------| 
B|-------8p7-----------------------0-----3-----2-------------------| 
G|-----7-----8p7-------------7/0-0-----------------0-------------9h| 
D|---8-----------7h8-----6-7-------------------------2---2---------| 
A|-7-----------------8-7-------------------------------------------| 
E|-----------------------------------------------------------------| 
   *   *   *   *   *   *   *   *   *   *   *   *   *   *   *   *  


                                             @=6p5 
e|[email protected]-| 
B|---9-----9-------9-----------------5-8-------8-6-5---------------| 
G|h10--10------10----10--7-----7-7p6-----------------7-6-----------| 
D|-------------------------------------------------------8-7-5-----| 
A|-------------------------------------------------------------8-7-| 
E|-----------------------------------------------------------------| 
   *   *   *   *   *   *   *   *   *   *   *   *   *   *   *   *  
                           @=10h12 
  1:42                       @=12p10 
       
e|[email protected]@-9-0-1-2-----9-----------------------|    
B|----------------0----------------------------1-0---0-----------0-|  From 1:41-2:22 
G|--------------0--------------------------------------------------|  8=8th, 9=9th 
D|-------------2---------------------------------------------------|  0= 10th, 1= 11th   
A|-5~~/~~4~--------------------------------------------------------|  2 = 12th, etc 
E|-----------------------------------------------------------------| 
   *   *   *   *   *   *   *   *   *   *   *   *   *   *   *   *  


                 @=11p10                             
e|[email protected]-|  
B|-1-0-------------3-1-0---------0-1b3-----b---b---1-----1---------| 
G|-----2-0-1-------------2-1---1-----------------------------------| 
D|---------------------------2-------------------------------------| 
A|-----------------------------------------------------------------| 
E|-----------------------------------------------------------------| 
   *   *   *   *   *   *   *   *   *   *   *   *   *   *   *   *  

  1:52 
                                           @=10h12             @=10h12 
e|[email protected]-| 
B|---------0-1---1b3-------1-0-------------------------0-2---------| 
G|[email protected]-| 
D|-------------------------------------------------2---------------| 
A|-----------------------------------------------------------------| 
E|-----------------------------------------------------------------| 
   *   *   *   *   *   *   *   *   *   *   *   *   *   *   *   *  


                           @=10h11 
e|-9---------------------------------------------------------------| 
B|[email protected]-| 
G|-------0-8---------9-2---------------0---------------------------| 
D|-----------------1---------------------2-9-9---------------------| 
A|-----------------------------------------------------------------| 
E|-----------------------------------------------------------------| 
   *   *   *   *   *   *   *   *   *   *   *   *   *   *   *   *  

  2:02 
   @=10h11 
e|-------------------------0-1---1---0-----------------------------| 
B|---------------------0-3-------------3-1-0-----------------------| 
G|-------------------1-------------------------1-------------------| 
D|-------------0-1-2-----------------------------3-2-0-------------| 
A|---------9-2-----------------------------------------3---2-0-----| 
E|[email protected]-| 
   *   *   *   *   *   *   *   *   *   *   *   *   *   *   *   *  


     @=13p12 
e|-----------------------------------------------------------------| 
B|-----------------------------------------------------------------| 
G|---------------------------0---0-9---9---------------------------| 
D|---------------------2---2-------------1---1---------------------| 
A|---------1---1-4---4-------------------------2---2-2---2-2-2-2-2-| 
E|[email protected]-| 
   *   *   *   *   *   *   *   *   *   *   *   *   *   *   *   *  

  2:12 
     @     =     @=12/14 
e|-----------------------------------------1-----------------------| 
B|-0-------0-----------------9---0-1-1---1---1---0---0-----------0-| 
G|[email protected]@-------------------------------------------------| 
D|-----------------------------------------------------------------| 
A|-----------------------------------------------------------------| 
E|-----------------------------------------------------------------| 
   *   *   *   *   *   *   *   *   *   *   *   *   *   *   *   *  


               @=8h10 
e|-----------------------------------------------------------------| 
B|---------------------------------------------7-0-8-----8\--------| 
G|---2-1-------------------------------------7---------------------| 
D|[email protected]-| 
A|-----------------0-9---------------5-----------------------5-4-3-| 
E|---------------------1-0---3---5-6-------------------------------| 
   *   *   *   *   *   *   *   *   *   *   *   *   *   *   *   *  

  2:22 

e|---------------------9-8---------8-------------------------------| 
B|---------------9-8---------8-0-1---0-----------------------------| 
G|---------6-5-------------------------0-------------------------7-| 
D|---6-5---------------------------------0-------------------------| 
A|-------------------------------------------1-2-1-2-----2---------| 
E|-----------------------------------------------------------------| 
   *   *   *   *   *   *   *   *   *   *   *   *   *   *   *   * 



e|---6---------------5---------------7-----5-----------------------| 
B|-------------------------------------------6---------------------| 
G|-8-------------5-6-------------6-7-----------7---4-4-4-7---------| 
D|-----------------------------------------------------------------| 
A|-----------------------------------------------------------------| 
E|-----------------------------------------------------------------| 
   *   *   *   *   *   *   *   *   *   *   *   *   *   *   *   *  

  2:32 

e|---------6-----5-------------------------6-----5-----------------| 
B|---------8-----6-------------------------5-----5-----------------| 
G|-7---------------------7---7~~\~~6---6---7-----6-----------------| 
D|---------------------------6~~\~~5---5-------5-------------------| 
A|-----------------------------------------------------------------| 
E|-----------------------------------------------------------------| 
   *   *   *   *   *   *   *   *   *   *   *   *   *   *   *   *  

   

e|-----------------5-5---------------------5~/~8---5-----3---------| 
B|-------------7-------7-------------------4~/~7---3---------------| 
G|---5-----7-7-------------7-5---3---------5~/~8---3---------------| 
D|---4-------------------------------------4~/~7---3---------------| 
A|-----------------------------------------------------------------| 
E|-----------------------------------------------------------------| 
   *   *   *   *   *   *   *   *   *   *   *   *   *   *   *   * 

   
                                           @=6h8p6 
e|---------3-5---6-6/8-----6-5-------------------------------------| 
B|[email protected]-| 
G|-----------------------------------------------7-------------7---| 
D|-----------------------------------------------------------------| 
A|-----------------------------------------------------------------| 
E|-----------------------------------------------------------------| 
   *   *   *   *   *   *   *   *   *   *   *   *   *   *   *   *  

  

e|-----------------------------------------------------------------| 
B|-5h6---5-------------------5---6-6-5-------------5---------------| 
G|---------7-5---4---------7---------------7---6-----6-----------7-| 
D|-------------------------------------------------------8---7-----| 
A|-----------------------------------------------------------------| 
E|-----------------------------------------------------------------| 
   *   *   *   *   *   *   *   *   *   *   *   *   *   *   *   *  



e|---------6-----5-------------------------6-----5-----------5-----| 
B|---------8-----6-------6---6---5---------5-----5-----------5-----| 
G|-----------------------7---7---6---------7-----6-----------6-----| 
D|---------------------------6---5-------------5-------------------| 
A|-----------------------------------------------------------------| 
E|-----------------------------------------------------------------| 
   *   *   *   *   *   *   *   *   *   *   *   *   *   *   *   *  

   

e|-----------------5-5---------------5-----5---5---3-----3---------| 
B|-------------7-------7-------------4-----4---4---3-----3---------| 
G|---5-----7-7-------------7-5---3---5-----5---5---3-----3---------| 
D|---4-------------------------------4-----4---4---3-----3---------| 
A|-----------------------------------------------------------------| 
E|-----------------------------------------------------------------| 
   *   *   *   *   *   *   *   *   *   *   *   *   *   *   *   * 

   
                                           @=6h8p6 
e|---------3-5---6-6/8-----6-5-------------------------------------| 
B|[email protected]-| 
G|-------------------------------------------------7-------------7-| 
D|-----------------------------------------------------------------| 
A|-----------------------------------------------------------------| 
E|-----------------------------------------------------------------| 
   *   *   *   *   *   *   *   *   *   *   *   *   *   *   *   *  

   
                                   @=5h6 
e|---6-------------------------------------------------------------| 
B|[email protected]-| 
G|-8---------8---6---------7---------------------------------------| 
D|-----------------------------------------------------------------| 
A|-----------------------------------------------------------------| 
E|-----------------------------------------------------------------| 
   *   *   *   *   *   *   *   *   *   *   *   *   *   *   *   *  


     @=3h4           @=7h8 
e|-----------------------------------------------------------------| 
B|[email protected]~/[email protected]| 
G|-----------------------------------------------------------------| 
D|-----------------------------------------------------------------| 
A|-----------------------------------------------------------------| 
E|-----------------------------------------------------------------| 
   *   *   *   *   *   *   *   *   *   *   *   *   *   *   *   *  

   
     @=5h6               @=4h5p4 
e|[email protected]-| 
B|[email protected]~/~10----------------------------5-------------------| 
G|-------------------------------------------6---------------6-----| 
D|-----------------------------------------5-----------------------| 
A|-----------------------------------------------------------------| 
E|---------------------------------------5-------------------------| 
   *   *   *   *   *   *   *   *   *   *   *   *   *   *   *   * 



e|---------6-----5-------------------------6-----5-----------5-----| 
B|---------8-----6-------6-----------------5-----5-----------5-----| 
G|-7---------------------7---7~~\~~6---6---7-----6-----------6-----| 
D|---------------------------6~~\~~5---5-------5-------------------| 
A|-----------------------------------------------------------------| 
E|-----------------------------------------------------------------| 
   *   *   *   *   *   *   *   *   *   *   *   *   *   *   *   *  

   

e|-----------------5-5---------------------5-----3-----------------| 
B|-------------7-------7-------------------4-----3-----------------| 
G|---5-----7---------------7-5---3---------5-----3-----------------| 
D|---4-------------------------------------------------------------| 
A|-----------------------------------------------------------------| 
E|-----------------------------------------------------------------| 
   *   *   *   *   *   *   *   *   *   *   *   *   *   *   *   * 

   
                                           
e|---3~~/~~5-6---8---------6-5-------------------------------------| 
B|---------8-6---5---------------8---------6-5-------5-----6-------| 
G|-----------------------------------------------7---------------7-| 
D|-----------------------------------------------------------------| 
A|-----------------------------------------------------------------| 
E|-----------------------------------------------------------------| 
   *   *   *   *   *   *   *   *   *   *   *   *   *   *   *   *  

   
                                     @=6p5 
e|---6-------------------------------------------------------------| 
B|[email protected]-| 
G|-8---------8---6---7-----------------7---7-7-6---7-----6---7---8-| 
D|-----------------------------------------------------------------| 
A|-----------------------------------------------------------------| 
E|-----------------------------------------------------------------| 
   *   *   *   *   *   *   *   *   *   *   *   *   *   *   *   *  


                                     @=6p5 
e|---6-------------------------------------------------------------| 
B|[email protected]-| 
G|-----------8---6---------------------7---7-7-6---7-------6---7---| 
D|-------------------7---------------------------------------------| 
A|-----------------------------------------------------------------| 
E|-----------------------------------------------------------------| 
   *   *   *   *   *   *   *   *   *   *   *   *   *   *   *   *  


           No tempo after this point, note spacing is just guess work 
e|---------6-----------------------------------6-------5-----------| 
B|-----------8-------------------------5---6---------------8-6-5---| 
G|-8-------------8-----6-----------7-----------------------------7-| 
D|-----------------------------------------------------------------| 
A|-----------------------------------------------------------------| 
E|-----------------------------------------------------------------| 
   *   *   *   *   *   *   *   *   *   *   *   *   *   *   *   *  

  
                                            
e|-----------------------------------------------------------0-----| 
B|---------------------------------------------------------0---0---| 
G|-6-----------------------------------------------------2-------2-| 
D|---8-7-5---------------------------------------------3-----------| 
A|---------8-7-6-------6h7-6-5-4-3-2-1-----0---------0-------------| 
E|-------------------------------------------------0---------------| 
   *   *   *   *   *   *   *   *   *   *   *   *   *   *   *   *  



e|---0-------0-----------------------------------------------------| 
B|-----0-------0---0-----------------------------------------------| 
G|-------2-------2-------------------------------------------------| 
D|-3-------3-------------------------------------------------------| 
A|-----------------------------------------------------------------| 
E|-----------------------------------------------------------------| 
   *   *   *   *   *   *   *   *   *   *   *   *   *   *   *   * 
		  

Full key step upFull key step up
Half key step upHalf key step up
Half key step downHalf key step down
Full key step downFull key step down
hide glossary

See also:

tabs Deep Purple - Strange kind of woman tabs Deep Purple - Smoke On The Water tabs Deep Purple - Time To Kill tabs Albert Hammond Jr - Gfc tabs Deep Purple - Soldier Of Fortune tabs Ira! - Nucleo De Base
e-chords

Other versions:

tabs Original Paris Swing - Recado
auto scroll beats size up size down change color hide chords drawings
tab show chords e-chords YouTube Clip e-chords hide all tabs e-chords go to top tab

share