Ordinary Boys

Week In Week Out

Ordinary Boys

tabs

by  ANG-LETRA

save to print version add songbook text version e-mail correct tuner
chordsukulelecavacokeyboardtabbassdrumsharmonicaflute Guitar Pro
close

there isn't a video lesson for this song

chords

Week In Week Out

	  		

|----------------------------------------| 
|----------------------------------------| 
|-7-7-6-4---7-6-4-4---6-6-------6--------| 
|-(b9)(b9)7-5---(b9)7-5-5---7-7-7-4---7-7-4-4--| 
|-------------------------(b9)5-----(b9)5-5--| 
|----------------------------------------| 

Also Preston play the Rythym Guitar which goes like this throughout the verses: 

|------------| 
|------------| 
|-----7------| 
|--5--7------| 
|--5--5------| - You should be able to work out the strumming pattern. 
|--3---------| 


However in the chorous Preston changes his Pattern to: 

|----------------------------------------| 
|----------------------------------------| 
|----------------------------------------| 
|-------------------4-2------------------| 
|-2--5--7--2--5--7--2-0--2--5--7---------| 
|-0--3--5--0--3--5-------0--3--5---------| 

(Cant be bothered to write each individual strum) 

Chorous Solo: Riff 1 

|--------------------------------------------------------| 
|----------------7------------10----12p10----------------| 
|-----7-10-----7-------7-9s11----11-------11s(b9)----------| x2 
|-7h(b9)-----7h(b9)----7h(b9)----------------------------------| 
|--------------------------------------------------------| 
|--------------------------------------------------------| 

Riff 2 
|----------------------------------------| 
|-------7--7--7-------7-7-8p7------------| 
|-----7--7--7--7-----7-7-7---7-----------| 
|-7h(b9)-----------7h(b9)--------------------| - After this Repeat Riff 1. 
|----------------------------------------| 
|----------------------------------------| 

Post 1st chorous Solo: (use continuous quater tone bending where a bend is implicated) 

|----------------------------------------| 
|----------------------------------------| 
|-7b-7b-7b-7b-(b9)(b9)(b9)11b-11b-11b-11b-11b-9| x2 
|----------------------------------------| 
|----------------------------------------| 
|----------------------------------------| 



|----------------------------------------------------------| 
|----------------------------------------------------------| 
|-12-12-12p11---11--12-12-12p11----11--14-12-11-12-11-12-11| 
|-------------12----------------12-----12-12-12-12-12-12-12| 
|----------------------------------------------------------| 
|----------------------------------------------------------| 



|--------------------------------------------| 
|--------------------------------------------| 
|-12-12-12p11--11--12-12-12p11--11-14-14-14--| 
|------------12---------------12---12-12-12--|  
|--------------------------------------------| 
|--------------------------------------------| 

Throughout the solo preston plays Riff 1 on his Guitar. After this go back to verse riffs. 

After 2nd chorous: 




|----------------------------------------| 
|-7h8-7h8-7h8-7h8-7h8-7h8-7h8-7h8-10t----| 
|----------------------------------------| 
|----------------------------------------| x2 
|----------------------------------------| 
|----------------------------------------| 



|--------------------------------------------------------| 
|--------------------------------10--12--14--14--15------| 
|-12-12-12p11--11--12-12-12p11---12b-14b-16b-16b-17b-----| 
|------------12---------------12-------------------------| 
|--------------------------------------------------------| 
|--------------------------------------------------------| 



|----------------------------------------| 
|----------------------------------------| 
|-12-12-12p11---11--12-12-12p11---11-14--| 
|-------------12----------------12---12--| 
|----------------------------------------| 
|----------------------------------------| 

Outro: 

|----------------------------------------| 
|----------------------------------------| 
|-7--(b9)-11b-11p(b9)7-7--(b9)-11--(b9)-4--------|  
|----------------------------------------| 
|----------------------------------------| - Bend 3rd note up and down. 
|----------------------------------------| 

Key: 
b = bend (unless stated otherwise) 
p = Pull off 
h = Hammer on 
		  

See also:

tabs Ray J - One Wish tabs Rihanna - Music of the sun tabs Nino Rota - Godfather Love Theme tabs Rihanna - Shut Up And Drive tabs Panic! At The Disco - Build God Then We'll Talk tabs Panic! At The Disco - I write sins not tragedies
e-chords

Other versions:

tabs Ordinary Boys - Week In Week Out
auto scroll beats size up size down change color hide chords drawings
tab show chords e-chords YouTube Clip e-chords hide all tabs e-chords go to top tab

share